Song name
# A B C D E F G H I J K L M N O P Q R S T U V W X Y Z

Foreigner - Juke Box Hero tab

Artist: Foreigner
Song: Juke Box Hero

E|----------------|
B|--------3-------|
G|--------2-------|
D|--2-----0-------|
A|--2-------------|
E|--0-------------|x2

E|----------------|
B|----------------|
G|--44----2-------|
D|--44----2-------|
A|--22----0-------|
E|----------------|x4

E|------------------|
B|--------3---------|
G|--------2---------|
D|--2--5--0--5--2---|
A|--2--5-----5--2---|
E|--0--3-----3--0---|x2

On second time from the one above, play this right after the 3,2,0...

E|--------------------------------|
B|--3-----------------------------|
G|--2--0-2-0----------------------|
D|--0--------4-2-0---2-4-5-4-2-0--|
A|--------------------------------|
E|-----------------0--------------|

Then start over from the top later on. 
Tap to rate this tab
# A B C D E F G H I J K L M N O P Q R S T U V W X Y Z