Song name
# A B C D E F G H I J K L M N O P Q R S T U V W X Y Z

Foreigner - Feels Like The First Time tab

-------------------------------------------------------------------------------
                             Feels Like The First Time - Foreigner
-------------------------------------------------------------------------------
Tabbed by: Daviddint
E-mail: Daviddint26@yahoo.com

Tuning: Standard - (Low To High) E-A-D-G-B-e

                Intro: 3 Times
e|-----------------------------------------------------------------------------|
B|-----------------------------------------------------------------------------|
G|--4-----4---4----4\--2----2---------2---2------2---2------2---2----4---------|
D|--5-----5---5----5\--3----3---------2---2------2---2------2---2----5------3--|
A|-----------------------------------------------------------------------3h5---|
E|------3------------------3------3----------3-----------3--------------------3|
                          PM
                End of Intro: Into Verse (I would climb any mountain)
e|----------------------------|
B|--3-------------------------|
G|--0-------------------------|
D|--5-------------------------|
A|--5-------------------------|
E|----------------------------|

Pre-Chorus
e|---------------------------------------------------------------------------|
B|--5--5----5--5--5---5--5----5--5--5----5--5----5--5--5----5--5----5--5--5--|
G|--7--7----6--6--6---7--7----6--6--6----7--7----6--6--6----7--7----6--6--6--|
D|--7--7----7--7--7---7--7----7--7--7----7--7----7--7--7----7--7----7--7--7--|
A|---------------------------------------------------------------------------|
E|---------------------------------------------------------------------------|                 

e|---------------------------------------------------------------------------|
B|--7--7----7--7--7---7--7----7--7--7----7--7----7--7--7----7--7----7--7-----|
G|--9--9----8--8--8---9--9----8--8--8----9--9----8--8--8----9--9----8--8-5---|
D|--9--9----9--9--9---9--9----9--9--9----9--9----9--9--9----9--9----9--9-5---|
A|-----------------------------------------------------------------------3---|
E|---------------------------------------------------------------------------|                 

Chorus 2x
e|-----------------------------------------------------------------------------|
B|-----------------------------------------------------------------------------|
G|--4-----4---4----4\--2----2---------2---2------2---2------2---2----4---------|
D|--5-----5---5----5\--3----3---------2---2------2---2------2---2----5------3--|
A|-----------------------------------------------------------------------3h5---|
E|------3------------------3------3----------3-----------3--------------------3|
                          PM
[Verse]

Pre-Choruse|
e|---------------------------------------------------------------------------|
B|--5--5----5--5--5---5--5----5--5--5----5--5----5--5--5----5--5----5--5--5--|
G|--7--7----6--6--6---7--7----6--6--6----7--7----6--6--6----7--7----6--6--6--|
D|--7--7----7--7--7---7--7----7--7--7----7--7----7--7--7----7--7----7--7--7--|
A|---------------------------------------------------------------------------|
E|---------------------------------------------------------------------------|  

e|---------------------------------------------------------------------------|
B|--7--7----7--7--7---7--7----7--7--7----7--7----7--7--7----7--7-------------|
G|--9--9----8--8--8---9--9----8--8--8----9--9----8--8--8----9--9-------------|
D|--9--9----9--9--9---9--9----9--9--9----9--9----9--9--9----9--9-------------|
A|-------------------------------------------------------------------------5-|
E|-------------------------------------------------------------------5--7----|                 

Bridge (Lead riff on top. Chords on bottom)
|e|-------------------------------------------|
|B|---10---7---8-------10---7---8------------o|
|G|----------------9----------------7---------|
|D|-------------------------------------------|
|A|------------------------------------------o|
|E|-------------------------------------------|
|                                                 Build up into chorus
|e|-------------------------------------------|---------------|
|B|------------------------------------------o|---------------|
|G|---9--------7--------5--------4------------|--5------------|
|D|---9--------7--------5--------4------------|--5------------|
|A|---7--------5--------3--------2-----------o|--3------------|
|E|-------------------------------------------|---------------|
                                                P.M 
[Chorus]

Solo 8x        8x              8x             8x
e|------------|-----------|-----------|-------------|
B|------------|-----------|-----------|------------o|
G|---10p7p0---|---9p6p0---|---8p5p0---|---7p4p0-----|
D|------------|-----------|-----------|-------------|
A|------------|-----------|-----------|------------o|
E|------------|-----------|-----------|-------------|

[Chorus]
Tap to rate this tab
# A B C D E F G H I J K L M N O P Q R S T U V W X Y Z