Song name
# A B C D E F G H I J K L M N O P Q R S T U V W X Y Z

Foreigner - Hot Blooded tab

Hot Blooded
Foreinger
Tabed By- KENNY - Email-imawesome12@Hotmail.com

Intro
e----------------]-----------------]----------------]-----------------]
B----------------]-----------------]----------------]-----------------]
G----------------]-----------------]----------------]-----------------]
D----------------]-----------------]----------------]-----------------]
A----------------]-----------------]----------------]-----------5-5-5-]
E-3-3-3-3-3-3-3-3]-3-3-3-3-3-3-3-3-]-3-3-3-3-3-3-3-3]-3-3-3-3-3-3-3-3-]

Chorus
e-----------------]--------------][------------------]-----------------]X4
B-----------------]-5--5--6---6--][-.----------------]-5---5---6---6--.]
G------5--4/5-4---]-5--5--5---5--][-------5-4/5-4----]-5---5---5---5---]
D------5----5-5---]--------------][-.-----5---5-5----]-----------------]
A---------------0-]-3--3--3---3--][----------------0-]-3---3---3---3--.]
E--3-3------------]--------------][---3-3------------]-----------------]

e------------------]------------------]
B-------8---8-7----]-8---8-7--x-x-x-x-]
G-------7---7-7----]-7---7-7--x-x-x-x-]
D------------------]------------------]
A--5--5-5---5-5--5-]-5---5-5--x-x-x-x-]
E------------------]------------------]

Verse
e-----------]--1--------0------]-------------]-1-------0------]
B--3--------]--1----1---1------]-3----3------]-1--1-1--1------]
G--0--------]--0----0----------]-0----0------]-0--0-0---------]
D--0--------]--3---------------]-0----0------]-3--------------]
A-----------]-------3----------]-------------]----3-3---------]
E--3----x-x-]--------------x-x-]-3---3---x-x-]------------x-x-]

e[----------------]-1--------0-----]---------------]-1--------]
B[---3------3-----]-1---1-1--1---X5]--3-----3------]-1---1-1--]
G[.--0------0-----]-0---0-0-------.]--0-----0------]-0---0-0--]
D[---0------0-----]-3--------------]--0-----0------]-3--------]
A[.---------------]-----3-3-------.]---------------]-----3-3--]
E[---3---3----x-x-]------------x-x-]--3---3----x-x-]----------]

Pre Chorus
e--------------]-------------]--------------]-1*--------]------------]
B--------------]-------------]--------------]-----------]------------]
G--5/-7-7-5-7/-]-10-10/--5-5-]-5/--7-7-5-7/-]-9-9/--5-5-]-5/-7-7-5-7/]
D--5/-7-7-5-7/-]-10-10/--5-5-]-5/--7-7-5-7/-]-9-9/--5-5-]-5/-7-7-5-7/]
A--3/-5-5-3-5/-]--8--8/--3-3-]-3/--5-5-3-5/-]-7-7/--3-3-]-3/-5-5-3-5/]
E--------------]-------------]--------------]-----------]------------]
					     Bottom played over the prechorus
e----------]-------------]-2*---------------[1*----------]2*-1-1-----------]
B----------]-------------]------------------[------------]---1-1--3-3-3-3-0]
G10-10/-5-5]-5/-7-7-5-7/-]-10-10-7---0-3-3-0[--0-4----0--]---x-x--2-0-3-3-0]
D10-10/-5-5]-5/-7-7-5-7/-]-10-10-7-0---3-3-0[2------2---2]---3-3--0-0------]
A-8-8-/-3-3]-3/-5-5-3-5/-]------------------[-----3------]-----------------]
E----------]-------------]------------------[------------]-----------------]

LICKS in the 2nd verse
e------]--------------------]-----]-----]-----]-----]------------------]
B------]--------------------]--15"]-----]-----]-----]------------------]
G-2"-0-]-2-2'-0-2'-2'-0-----]-----]-14"-]-12--]-3h4-]------------------]
D------]----------------3p0-]-----]-----]---12]-----]---3/5-7""-5/3----]
A------]--------------------]-----]-----]-----]-----]3/5------------3~']
E------]--------------------]3----]-----]-----]-----]------------------]

GUITAR SOLO- 		2nd guitar do verse                   
e------]------]------]----------]------------]-----------6'-8--6*-]
B------]------]----6-]--6-6-----]------------]-----6/8-8----------]
G------]-5"-3-]----5-]--5-5--3'-]-----3'-5-5-]-7-7----------------]
D------]------]-5~---]----------]-5~-5-------]--------------------]
A------]------]------]----------]------------]--------------------]
E-1""--]------]------]----------]------------]--------------------]

e---------------12h15p12----12h15p]12------------------]
B--8-8/13/0--12----------12-------]---12-15'--12-------]
G---------------------------------]--------------14"p12]
D---------------------------------]--------------------]
A---------------------------------]--------------------]
E---------------------------------]--------------------]

e------------------------------------------------]-----]
B-/15-0--0-12-0--0-/15-0--0-12-0--0--/15-0--0--12]-0-0-]
G-/15-0--0-12-0--0-/15-0--0-12-0--0--/15-0--0--12]-0-0-]
D------------------------------------------------]-----]
A------------------------------------------------]-----]
E------------------------------------------------]-----]


e-------------------------------------------]---------------15-------]
B-/15-0--0-12-0--0-/15-0--0-12-0--0--/15-0--]----13------/15--15-15"-]
G-/15-0--0-12-0--0-/15-0--0-12-0--0--/15-0--]-12-12-12/5-/15-----15"-]
D-------------------------------------------]-12-14-12/5-------------]
A-------------------------------------------]------------------------]
E-------------------------------------------]------------------------]

e-13------------]---------------------]--------------]-x--------------]
B---------------]---------------------]-------12-15'-]--x-------------]
G----15"--12----]-12------------------]-15"-"--------]----12/24-12-12/]
D------------12-]----14/--------------]--------------]----------------]
A---------------]---------------------]--------------]----------------]
E---------------]----------19/-16/-0--]--------------]----------------]

e------------------]---------]
B------------------]---------]
G-0(2)~~~~----2"p0-]---------]
D------------------]---------]
A------------------]-3'~~~~--]
E------------------]---------]

Licks At The END PRE chorus
e---]--------------------]-----------]-------15-------------]----]
B---]--------------------]-6'--------]-18-18'---------------]----]
G---]----------------5-7-]----7-7~-0-]----------0-15-15-----]----]
D---]----3-3-3-5-5/7-----]-----------]-----------------17p15]-17~]
A-3']-5-5----------------]-----------]----------------------]----]
E---]--------------------]-----------]----------------------]----]

NO ONE HAD THIS GREAT SONG TABS ALL THE WAY SO I DID IT


Tap to rate this tab
# A B C D E F G H I J K L M N O P Q R S T U V W X Y Z