Song name
# A B C D E F G H I J K L M N O P Q R S T U V W X Y Z

Foreigner - Double Vision tab

Tabbed by: Brian-guitarist (BriantheFrancis@aim.com)

This is a one of a kind classic and I was surprised to see that there was only a 
of it when i looked it up. I decided to tab this for people who don't have powertab software. 
me)

e|--12\4----------------12\4-----------------12\4---------------12\4-------|
B|--12\4----------------12\4-----------------12\4---------------12\4-------|
G|--12\4-5--5--5/7\5----12\4-5--5--5/7-7\5---12\4-5--5--5/7\5---12\4-5--5-7|
D|-------5--5--5/7\5---------5--5--5/7-7\5--------5--5--5/7\5--------5--5-7|
A|-------3--3--3/5\3---------3--3--3/5-5\3--------3--3--3/5\3--------3--3-5|
E|-------------------------------------------------------------------------|

Feelin' down and dirty, feelin' kinda mean
e|---------------------------------------------------|
B|---------------------------------------------------|
G|---2-2---2-------------------------2-2---2---------|
D|---2-2---2-------------------------2-2---2---------|
A|-0-0-0-0-0-0-0-0-0-0-0-0-0-0-0-0-0-0-0-0-0-0-0-0---|
E|---------------------------------------------------|

e|-------------------|
B|-------------------|
G|-----7--5----------|
D|--7--7--5--5-------|
A|--7--5--3--5-------|
E|--5--------3-------|

e|---------------------------------------------------|
B|---------------------------------------------------|
G|---2-2---2-------------------------2-2---2---------|
D|---2-2---2-------------------------2-2---2---------|
A|-0-0-0-0-0-0-0-0-0-0-0-0-0-0-0-0-0-0-0-0-0-0-0-0---|
E|---------------------------------------------------|

e|-------------------|
B|-------------------|
G|----5--4-----------|
D|-3--5--4--5--------|
A|-3--3--2--5--------|
E|-1--------3--------|

e|---------------------------------------------------|
B|---------------------------------------------------|
G|---2-2---2-------------------------2-2---2---------|
D|---2-2---2-------------------------2-2---2---------|
A|-0-0-0-0-0-0-0-0-0-0-0-0-0-0-0-0-0-0-0-0-0-0-0-0---|
E|---------------------------------------------------|

e|-------------------|
B|-------------------|
G|-----7--5----------|
D|--7--7--5--5-------|
A|--7--5--3--5-------|
E|--5--------3-------|

e|---------------------------------------------------|
B|---------------------------------------------------|
G|---2-2---2-------------------------2-2---2---------|
D|---2-2---2-------------------------2-2---2---------|
A|-0-0-0-0-0-0-0-0-0-0-0-0-0-0-0-0-0-0-0-0-0-0-0-0---|
E|---------------------------------------------------|

e|-------------------------|
B|-------------------------|
G|----5--4-----------------|
D|-3--5--4--5--7-7-7-7-7---|
A|-3--3--2--5--7-7-7-7-7---|
E|-1--------3--5-5-5-5-5---|

Chorus:
e|-13----------13---------------|
B|----13----13----13----13------|
G|-------14----------14---------|and so on
D|------------------------------|
A|------------------------------|
E|------------------------------|

e|-12----------12---------------|
B|----13----13----13----13------|
G|-------14----------14---------|and so on
D|------------------------------|
A|------------------------------|
E|------------------------------|

e|-13-------13--------13-13-------13--------13--|
B|----13--------13----------13--------13--------|
G|-------14--------14----------14--------14-----|
D|----------------------------------------------|
A|----------------------------------------------|
E|----------------------------------------------|

e|-12-------12--------12-12-------12--------12|
B|----13--------13----------13--------13------|
G|-------14--------14----------14-------14----|
D|--------------------------------------------|
A|--------------------------------------------|
E|--------------------------------------------|
over
e|------------------------------------------|
B|------------------------------------------|
G|---7---7-------7---7----------------------|
D|---7---7-------7---7----7---7-------7---7-|
A|-0-5-0-5-----0-5-0-5----7---7-------7---7-|
E|----------------------5-5-5-5-----5-5-5-5-|

e|--------------------------------|
B|--------------------------------|
G|---7---7-------7---7------------|
D|---7---7-------7---7----7---7---|
A|-0-5-0-5-----0-5-0-5----7---7---|
E|----------------------5-5-5-5---|

e|---------------------------------------------|
B|---------------------------------------------|
G|--------5--7--10\---5-7-10\----7-555---7---7-|
D|--7--9--5--7--10\---5-7-10\----7-555---7---7-|
A|--7--9--3--5--8\--0-3-5--8\--0-5-333-0-5-0-5-|
E|--5--7---------------------------------------|

e|------------------------------|
B|------------------------------|
G|---5------7---7---------------|
D|---5-7----7---7---------------|
A|-0-3-7--0-5-0-5---------------|
E|-----5------------------------|

my double vision gets the best of me
e|------------------------------|
B|------------------------------|
G|-4-7-5-9-7-5-2----------------|
D|-4-7-5-9-7-5-2----------------|
A|-2-5-3-7-5-3-0----------------|
E|------------------------------|

e|-12\4------------12\4-------------------|
B|-12\4------------12\4-------------------|
G|-12\4-5--5-5/7\5-12\4-5--5--7-----------|
D|------5--5-5/7\5------5--5--7-----------|
A|------3--3-3/5\3------3--3--5-----------|
E|----------------------------------------|

I never do more than i really need
e|---------------------------------------------------|
B|---------------------------------------------------|
G|---2-2---2-------------------------2-2---2---------|
D|---2-2---2-------------------------2-2---2---------|
A|-0-0-0-0-0-0-0-0-0-0-0-0-0-0-0-0-0-0-0-0-0-0-0-0---|
E|---------------------------------------------------|

e|-------------------|
B|-------------------|
G|-----7--5----------|
D|--7--7--5--5-------|
A|--7--5--3--5-------|
E|--5--------3-------|

e|---------------------------------------------------|
B|---------------------------------------------------|
G|---2-2---2-------------------------2-2---2---------|
D|---2-2---2-------------------------2-2---2---------|
A|-0-0-0-0-0-0-0-0-0-0-0-0-0-0-0-0-0-0-0-0-0-0-0-0---|
E|---------------------------------------------------|

e|-------------------|
B|-------------------|
G|----5--4-----------|
D|-3--5--4--5--------|
A|-3--3--2--5--------|
E|-1--------3--------|

e|---------------------------------------------------|
B|---------------------------------------------------|
G|---2-2---2-------------------------2-2---2---------|
D|---2-2---2-------------------------2-2---2---------|
A|-0-0-0-0-0-0-0-0-0-0-0-0-0-0-0-0-0-0-0-0-0-0-0-0---|
E|---------------------------------------------------|

guitar break:
e|-------------------------|
B|-------------------------|
G|-------------------------|
D|--7-5--------------------|
A|------7-6-5--------------|
E|------------7-5----------|

e|-------------------|
B|-------------------|
G|-----7--5----------|
D|--7--7--5--5-------|
A|--7--5--3--5-------|
E|--5--------3-------|

e|---------------------------------------------------|
B|---------------------------------------------------|
G|---2-2---2-------------------------2-2---2---------|
D|---2-2---2-------------------------2-2---2---------|
A|-0-0-0-0-0-0-0-0-0-0-0-0-0-0-0-0-0-0-0-0-0-0-0-0---|
E|---------------------------------------------------|

e|-------------------------|
B|-------------------------|
G|----5--4-----------------|
D|-3--5--4--5--7-7-7-7-7---|
A|-3--3--2--5--7-7-7-7-7---|
E|-1--------3--5-5-5-5-5---|

Play chorus.

My double vision always seems to get the best of me
e|------------------------------|
B|------------------------------|
G|-4-7-5-9-7-5-2-9-7-5-2--------|
D|-4-7-5-9-7-5-2-9-7-5-2--------|
A|-2-5-3-7-5-3-0-7-5-3-0--------|
E|------------------------------|

e|--12\4----------------12\4-----------------12\4---------------12\4---|
B|--12\4----------------12\4-----------------12\4---------------12\4---|
G|--12\4-5--5--5/7\5----12\4-5--5--5/7-7\5---12\4-5--5--5/7\5---12\4-5-|
D|-------5--5--5/7\5---------5--5--5/7-7\5--------5--5--5/7\5--------5-|
A|-------3--3--3/5\3---------3--3--3/5-5\3--------3--3--3/5\3--------3-|
E|---------------------------------------------------------------------|

e|------------------------------|
B|------------------------------|
G|-4-7-5-9-7-5-2----------------|
D|-4-7-5-9-7-5-2----------------|
A|-2-5-3-7-5-3-0----------------|
E|------------------------------|

after that, just keep repeating the chorus and fade.

This was a pain to write, so i hope it does some good.

Rock on!
Tap to rate this tab
# A B C D E F G H I J K L M N O P Q R S T U V W X Y Z