Song name
# A B C D E F G H I J K L M N O P Q R S T U V W X Y Z

Foreigner - Heart Turns To Stone tab

Heart turns to stone by foreigner
Main riff:
e|----------------------------------------|
B|----------------------------------------|
G|-2------5--4-4--2------5--4-------------|repeat
D|-2--5---5--4-4--2--5---5--4-------------|
A|-0--5---3--2-2--0--5---3--2-------------|
E|----3--------------3--------------------|

verse:
e|----------------------------------------|
B|----------------------------------------|
G|-2-----2-----2-----2--------------------|so on
D|-2--5--2--5--2--5--2--5-----------------|
A|-0--5--0--5--0--5--0--5-----------------|
E|----3-----3-----3-----3-----------------|

leading into chorus:
"and she was with you..."
e|----------------------------------------|
B|----------------------------------------|
G|-5-4--5-4--5-4--5-4--7-5--7-5--7-5--7-5-|
D|-5-4--5-4--5-4--5-4--7-5--7-5--7-5--7-5-|
A|-3-2--3-2--3-2--3-2--5-3--5-3--5-3--5-3-|
E|----------------------------------------|

chorus:
e|----------------------------------------|
B|----------------------------------------|
G|-2----5---------------------------------|
D|-2----5--5------3-----------------------|x3
A|-0----3--5----3-------------------------|
E|---------3--0---------------------------|

"she's that kind of woman..."
e|------------------------------------------|
B|-----3-6-5--------------------------------|
G|-----------5-3----------------------------|
D|-0-3--------------------------------------|
A|-----------------------0---0-3-3p0--------|
E|-------------------0-3---3---------3------|

solo:
e|----------------------------------------|
B|----------------------------------------|
G|-13-10-12-10-13-10-12-10-13-10-12-10----|so on
D|----------------------------------------|
A|----------------------------------------|
E|----------------------------------------|
in the middle:
e|----------------------------------------|
B|----------------------------------------|
G|-11^-11^-11^----------------------------|then the first part again
D|----------------------------------------|
A|----------------------------------------|
E|----------------------------------------|
then the last bend is:
e|----------------------------------------|
B|----------------------------------------|
G|---17^----------------------------------|
D|----------------------------------------|
A|----------------------------------------|
E|----------------------------------------|

just keep repeating those riffs in the order they come in. Listen to the album for timing.

All of my tabs are ear-transcribed, so get the official music if you really want to learn.
Brian-guitarist
Tap to rate this tab
# A B C D E F G H I J K L M N O P Q R S T U V W X Y Z