Song name
# A B C D E F G H I J K L M N O P Q R S T U V W X Y Z

Forest Sun - No Regrets chords

Highlighted       Show chord diagrams
Capo VI

Chords:
C   Am  G   F
3---0---3---3-|
1---1---0---1-|
0---2---0---2-|
2---2---0---3-|
3---0---2---0-|
0---0---3---0-|



Intro
             C            C         Am        G
-------------3------------3---------3---------3-----------3--|
-------------1------------1---------1---------0-----------1--|
-------------0------------0---0-2-0-2-2-0---0-0-----------0--|
---2-0-------2--2-0-------2-2-------2-----2---0-2-0-------2--|
-------3-0-3-3------3-0-3-3---------0---------2-----3-0-3-3--|
-------------0------------0---------0---------3-----------0--|


C
Darling, no regrets

Im so glad we met
                          Am
And even though we made a mess,
                      G
Im glad that we said yes.
               C
Darling, no regrets.
                    C
You know I love you still.

And I always will
                  Am
And love is not a test.
                  G
I know we did our best.
              C
Darling, no regrets
    G      F      C
Oh darling, no regrets
    G      F      C
Oh darling, no regrets

(Intro)
              C
Darling, no regrets.

Heres to your success
                  Am
May all you do be blessed.
                 G
I wish you every happiness.
              C
Darling, no regrets
   G       F      C
Oh darling, no regrets
   G       F      C
Oh darling, no regrets.


----------3--|
----------1--|
----------0--|
--2-0-----2--|
------3-0-3--|
----------0--|
Tap to rate this tab
 
# A B C D E F G H I J K L M N O P Q R S T U V W X Y Z