Song name
# A B C D E F G H I J K L M N O P Q R S T U V W X Y Z

Forest Sun - Morningbird tab

Capo on 5th fret.
The bars indicate parts of the song, not measures. This is essentially the 
introduction of the song, but you can repeat it throughout. 

  C                 Fmaj7        C               C
E-------0----0-----|------------------1--------|----------0---0------------------|
B-1--3----------1--|----1--1-------------1-----|-1--1--3----------1------1--0--1-|
G----------------0-|----------2--0--------0----|-------------------0-------------|
D-------2--2--2----|-3--3--3--3-----2----------|---------------------------------|
A-3--3-------------|-------------3-----3-----3-|(3)-3--3--3--3--3-----3--3--3--3-|
E------------------|---------------------------|---------------------------------|

  G                        C           Fmaj7        C
E------3---------3--3--5-|-0---0--0---------------|------1------------------0----0-----|
B-0-------0--------------|--------1-------1--1----|---------1------1--1--3----------1--|
G----------0-------------|----0---0-0-----------2-|-0--------0-----------------------0-|
D------------------------|-------------3--3--3----|----2--2----------------------------|
A------------------------|-3----------------------|-3-----------3--3--3--3--3--3-------|
E-3--3--3-----3--3--3--3-|------------------------|------------------------------------|

  G
D-------0----------1-----------|
B----3-----3--1-------1------1-|
G----------------0-----0-------|
D------------------------------|
A-------------3-----3-----3----|
E-3--3--3--3-------------------|

Instead of the tab, you can also just play the chords, but it's then nicer to 
replace Fmaj7 with a regular F chord, as shown in the chorus below. 

        C
Sing to me
F             C
   My morning bird
C                         G
The sweetest song, I ever heard
G          C    F                     C
Loves melo-dy      in your hearts own words
C
Sing to me
G              C
    My morning bird

When the sun
Climbs over the mountain
Just to hear you sing your song,
And all the stars lay down in heaven 
To take their rest till evening comes

Sing to me
My morning bird
The sweetest song, I ever heard
Loves melody in your hearts own words
Sing to me
My morning bird

Don't you fly
Away from me,
Without leaving,
Me with your song,
For the morning, is much to lonely,
And so quiet, when you're gone

Sing to me
My morning bird
The sweetest song, I ever heard
Loves melody in your hearts own words
Sing to me
My morning bird

Sing to me 
My morning bird
Tap to rate this tab
# A B C D E F G H I J K L M N O P Q R S T U V W X Y Z