Song name
# A B C D E F G H I J K L M N O P Q R S T U V W X Y Z

Forever Came Calling - Front Porch Sunrise tab

Forever Came Calling -  Front Porch Sunrise
http://forevercamecalling.com/


E|-0--0--0--0--0-------------------------------------------------------------------|
B|-12-9--7--9--7-------------------------------------------------------------------|  X2
G|---------------------------------------------------------------------------------|
D|---------------------------------------------------------------------------------|
A|---------------------------------------------------------------------------------|
E|---------------------------------------------------------------------------------|

E|------0--0---0--0-0---------------------------------------------------------------------------|
B|-----12--9--12--7/9---------------------------------------------------------------------------|
G|----------------------------------------------------------------------------------------------|
D|----------------------------------------------------------------------------------------------|
A|----------------------------------------------------------------------------------------------|
E|----------------------------------------------------------------------------------------------|

Chorus: A E B  x4

E|----------------------------------------------------------------------------------------------|
B|----------------------------------------------------------------------------------------------|
G|---9--13--14--13------------------------------------------------------------------------------|
D|----------------------------------------------------------------------------------------------|
A|---7--11--12--11------------------------------------------------------------------------------|
E|----------------------------------------------------------------------------------------------|

E|-0--0--0--0--0------------------------------------------------------------------------------|
B|-12-9--7--9--5------------------------------------------------------------------------------|X4
G|--------------------------------------------------------------------------------------------|
D|--------------------------------------------------------------------------------------------|
A|--------------------------------------------------------------------------------------------|
E|--------------------------------------------------------------------------------------------|

Breakdown: C# B A E x4

Slow Chorus: A E B x2

Verse: A E B x4

E|----------------------------------------------------------------------------------------------|
B|----------------------------------------------------------------------------------------------|
G|----------------------------------------------------------------------------------------------|
D|--------------9-----------------9---------------------9-----------9--7/6------------------9---|
A|--------7--------------7-----------7/9/7--------9--------------9----------7--------11---------|
E|--5--5-----5-----5--5-----5--5------------7--7-----7-----7--7----------------9--9------9------|

E|----------------------------------------------|
B|----------------------------------------------|
G|----------------------------------------------|
D|---------------9----------9-----7--6--4/6-----| x4
A|--------11--------7/6--------7-------------7--|
E|--9--9------9----------7----------------------|
Tap to rate this tab
# A B C D E F G H I J K L M N O P Q R S T U V W X Y Z