Song name
# A B C D E F G H I J K L M N O P Q R S T U V W X Y Z

Forever Came Calling - If Bukowski Could See Me Now tab

Forever Came Calling

If Bukowski Could See Me Now

https://www.youtube.com/watch?v=fFvgw_zBdX4 < ----- Video of playthrough with both guitars


Rhythm Guitar:

You will need to listen to the song to figure out the strumming patterns.

Intro

E|--------------|
B|--------------|
G|--------------|
D|--------7--7--|
A|--7--7--5--5--|
E|--5--5--------|


Let's get wreckless like the ocean...
(palm muting with accents)

E|--------|
B|--------|
G|--------|
D|-----7--|
A|--7--5--|
E|--5-----|

We're all searching for
(palm muting with accents)

E|--------|
B|--------|
G|--------|
D|-----7--|
A|--7--5--|
E|--5-----|

You taught me a lot about confidence
(palm muting with accents)

E|----------------------|
B|----------------------|
G|----------------------|
D|-------------------7--|
A|--7----------------5--|
E|--5-------------------|

Same as intro

E|--------------|
B|--------------|
G|--------------|
D|--------7--7--|
A|--7--7--5--5--|
E|--5--5--------|

Sitting tongue out and spinning
(palm muting with accents)

E|--------|
B|--------|
G|--------|
D|-----7--|
A|--7--5--|
E|--5-----|

You taught me a lot about confidence
(palm muting with accents)


E|----------------------|
B|----------------------|
G|----------------------|
D|-------------------7--| X2
A|--7----------------5--|
E|--5-------------------|

Of all the things she swore she ever meant

E|------------------------------------------------------------------------------------|
B|--10-----10-----10-----9-----9-----9-----10-----10-----10-----7--------9-----10-----|
G|------9------9------9-----9-----9-----9------9------9------9-----9--9-----9------9--|
D|------------------------------------------------------------------------------------|
A|------------------------------------------------------------------------------------|
E|------------------------------------------------------------------------------------|

E|---------------------------------------------------------------------------|
B|--10-----10-----10-----9-----9-----9-----7-----7-----7-----9-----9-----10--|
G|------9------9------9-----9-----9-----9-----9-----9-----9-----9-----9------|
D|---------------------------------------------------------------------------|
A|---------------------------------------------------------------------------|
E|---------------------------------------------------------------------------|

She crashes those waves

E|-----------------|
B|-----------------|
G|-----------------|
D|--------7--------|
A|--4--2--5--4--2--|
E|--2--0-----2--0--|

Did you ever find change
(palm muting with accents)

E|--------|
B|--------|
G|--------|
D|-----7--|
A|--7--5--|
E|--5-----|


E|-----
B|-----
G|-----
D|-----
A|--7--
E|--5--



Lead Guitar:

Intro

E|---------------------------------|
B|--10--9---10--9---15--14--15--14-|
G|--9---9---9---9---14--14--14--14-|
D|---------------------------------|
A|---------------------------------|
E|---------------------------------|

Let's get wreckless like the ocean...

E|--------------------------------------------------------------|
B|----------------------------10--9-----------------------------|
G|-----------------7--9--7----9---9-------------7--9--7---------|
D|--7--6--7--6--4----------------------7--6--4------------------|
A|-----------------5--7--5----------------------5--7--5---------|
E|--------------------------------------------------------------|

You taught me a lot about confidence

E|--------------------------|
B|--------------------------|
G|--21--16--18--16--18--18--|
D|--------------------------|
A|--19--14--16--14--16--16--|
E|--------------------------|

Same as intro

E|---------------------------------|
B|--10--9---10--9---15--14--15--14-|
G|--9---9---9---9---14--14--14--14-|
D|---------------------------------|
A|---------------------------------|
E|---------------------------------|

Sitting tongue out and spinning

E|------------------------------|
B|------------------------------|
G|-----------------7--9--7------|
D|--7--6--7--6--4---------------|
A|-----------------5--7--5------|
E|------------------------------|

You taught me a lot about confidence

E|--------------------------|
B|--------------------------|
G|--21--16--18--16--18--18--|
D|--------------------------| X 6
A|--19--14--16--14--16--16--|
E|--------------------------|

‘cause the actors that we play

E|--------------------------|
B|--------------------------|
G|--21--16--23--16--18--18--|
D|--------------------------|
A|--19--14--21--14--16--16--|
E|--------------------------|

are taking on our lives.

E|--------------------------|
B|--------------------------|
G|--21--16--18--16--18--18--|
D|--------------------------|
A|--19--14--16--14--16--16--|
E|--------------------------|

Of all the things she swore she ever meant

E|-------------------|
B|-------------------|
G|-----9--7--6--4/6--|  X 3
D|--7----------------|
A|-------------------|
E|-------------------|

E|-----------------|
B|-----------------|
G|-----9--7--6--4--|
D|--7--------------|
A|-----------------|
E|-----------------|

She crashes those waves

E|-----------------|
B|-----------------|
G|-----------------|
D|--------7--------|
A|--4--2--5--4--2--|
E|--2--0-----2--0--|

Did you ever find change?

E|--------------------------|
B|--------------------------|
G|--21--16--18--16--18--18--|
D|--------------------------| X4
A|--19--14--16--14--16--16--|
E|--------------------------|


E|-----
B|-----
G|-----
D|-----
A|--7--
E|--5--
Tap to rate this tab
# A B C D E F G H I J K L M N O P Q R S T U V W X Y Z