Song name
# A B C D E F G H I J K L M N O P Q R S T U V W X Y Z

Forever Changed - Need To Feel Alive tab

----------------------------------------------------------------------------
	        The Need To Feel Alive - Forever Changed
----------------------------------------------------------------------------

Link To Official Site: http://www.foreverchanged.net/

Tuning: Eb,Ab,Db,Gb,Bb,eb

I did'nt see any tabs out there for Forever Changed which is a shame, so here it goes...

Intro (Hard to make out, but these notes repeat)
e|---0----0----0----0-------------|
B|-3----3----3----3---------------|
G|--4----4----4----4--------------|
D|--------------------------------|
A|--------------------------------|
E|--------------------------------|

Verse (:23)                               x2 (:35)
e|------------------------------------------|-------------------------|
B|------------------------------------------|-------------------------|
G|------------------------------------------|-------------------------|
D|-5-5-5--5--5--5-5--5---9-9-9--9--9--9-9--9|-------------------------|
A|-5-5-5--5--5--5-5--5---9-9-9--9--9--9-9--9|-------------------------|
E|-3-3-3--3--3--3-3--3---7-7-7--7--7--7-7--7|10h12p10\----------------|

(:35)                                     x2
e|------------------------------------------|--------------------------|
B|------------------------------------------|--------------------------|
G|------------------------------------------|--------------------------|
D|-5-5-5--5--5--5-5--5---9-9-9--9--9--9-9--9|--------------------------|
A|-5-5-5--5--5--5-5--5---9-9-9--9--9--9-9--9|--------------------------|
E|-3-3-3--3--3--3-3--3---7-7-7--7--7--7-7--7|10h12p10\7(let ring)------|

(1:00)              (x3)                 (let ring)
e|------7---5-7-5--|-7-5-7-5-7-5-7-7-5--|----------------------------|
B|-------7-7-7-7-7-|--7-7-7---7---7-7-7-|----------------------------|
G|-----------------|--------------------|----------------------------|
D|-5-5-------------|--------------------|-2--------------------------|
A|-5-5-------------|--------------------|-2--------------------------|
E|-3-3-------------|--------------------|-0--------------------------|
        ..........  ...................
Chorus (1:14)                x2
e|-----------------------------|----------------------------------|
B|-----------------------------|----------------------------------|
G|-------------(6~)------------|----------------------------------|
D|-5555--9999-------7777--2222-|----------------------------------|
A|-5533--9999-------7777--2222-|----------------------------------|
E|-3333--7777-------5555--0000-|----------------------------------|

Verse (2nd Part) (1:39)                x2
e|---5---5---5-5--5----------------------|---------------------------|
B|----7---7---7-7--7-----7--5-5-7-7--5-5-|---------------------------|
G|-\7--7----7-----7--7--7-7--7---7-7--7-7|---------------------------|
D|---------------------------------------|---------------------------|
A|---------------------------------------|---------------------------|
E|---------------------------------------|-7(let ring)---------------|


(2:02)                  (x3)                 (let ring)
e|----------7---5-7-5--|-7-5-7-5-7-5-7-7-5--|--------------------------|
B|-----------7-7-7-7-7-|--7-7-7---7---7-7-7-|--------------------------|
G|---------------------|--------------------|--------------------------|
D|-5-5-5---------------|--------------------|-2------------------------|
A|-5-5-5---------------|--------------------|-2------------------------|
E|-3-3-3---------------|--------------------|-0------------------------|
            ..........   ...................

Chorus (2:18)                x2
e|-----------------------------|----------------------------------|
B|-----------------------------|----------------------------------|
G|-------------(6~)------------|----------------------------------|
D|-5555--9999-------7777--2222-|-2--------------------------------|
A|-5533--9999-------7777--2222-|-2--------------------------------|
E|-3333--7777-------5555--0000-|-0--------------------------------|

(2:45) (Bass cut out)                     x2
e|------------------------------------------|----|
B|------------------------------------------|----|
G|------------------------------------------|----|
D|-5-5-5--5--5--5-5--5---9-9-9--9--9--9-9--9|----|
A|-5-5-5--5--5--5-5--5---9-9-9--9--9--9-9--9|----|
E|-3-3-3--3--3--3-3--3---7-7-7--7--7--7-7--7|----|

Bridge (2:57)       x3
e|--------------------|----------|----------------------------|
B|--------------------|----------|----------------------------|
G|--------------------|----------|----------------------------|
D|-5555-2222-9999-7777|-5555-2222|-22222222-------------------|
A|-5555-2222-9999-7777|-5555-2222|-22222222-------------------|
E|-3333-0000-7777-5555|-3333-0000|-00000000-------------------|

Bridge (2:57)(Solo)                  x3
e|-9h10-7h10-9h10-7h10-9h10-7h10-9h10--|-9h10-7h10-9h10-7h10-7h10p9-7h10p9p7-|
B|-----------------------------------10|-------------------------------------|
G|-------------------------------------|-------------------------------------|
D|-------------------------------------|-------------------------------------|
A|-------------------------------------|-------------------------------------|
E|-------------------------------------|-------------------------------------|

e|-\17p14-------------------------14-------------------------|--------|
B|--------15-14-12----12-14-14\15----15-14-15-12-15-14-15----|-10-----|
G|-----------------14----------------------------------------|--------|
D|-----------------------------------------------------------|--------|
A|-----------------------------------------------------------|--------|
E|-----------------------------------------------------------|--------|

Chorus (3:21)                x2
e|-----------------------------|--------------------------------------|
B|-----------------------------|--------------------------------------|
G|-------------(6~)------------|--------------------------------------|
D|-5555--9999-------7777--2222-|-22222222-----------------------------|
A|-5533--9999-------7777--2222-|-22222222-----------------------------|
E|-3333--7777-------5555--0000-|-00000000-----------------------------|

(3:48)                                    x2 (let ring)
e|------------------------------------------|-------------------------|
B|------------------------------------------|-------------------------|
G|------------------------------------------|-------------------------|
D|-5-5-5--5--5--5-5--5---9-9-9--9--9--9-9--9|-5-----------------------|
A|-5-5-5--5--5--5-5--5---9-9-9--9--9--9-9--9|-5-----------------------|
E|-3-3-3--3--3--3-3--3---7-7-7--7--7--7-7--7|-3-----------------------|

| /  slide up
| \  slide down
| h  hammer-on
| p  pull-off
| ~ vibrato
| +  harmonic
| x  Mute note
| .  Palm mute
============================================================================
Tap to rate this tab
 
# A B C D E F G H I J K L M N O P Q R S T U V W X Y Z