Song name
# A B C D E F G H I J K L M N O P Q R S T U V W X Y Z

Forever It Shall Be - Our Paradise tab

Drop C Tuning

D|----------------------------------------------------------|
A|----------------------------------------------------------|
F|-------5-3-2-3-2--------------------5-3-2-3-2-------------|
C|-3-2-3-----------2-3-5-3-2-3--3-2-3-----------2-3-5-3-2-3-|
G|----------------------------------------------------------|
C|----------------------------------------------------------|

D|----------------------------------------------------------|
A|----------------------------------------------------------|
F|-------7-5-3-5-3-2-3-----3----------7-5-3-5-3-2-3-5-3-2---|
C|-5-3-5---------------3-5------5-3-5---------------------3-|
G|----------------------------------------------------------|
C|----------------------------------------------------------|

2nd time it is

D|--------------------------------------------------------|
A|--------------------------------------------------------|
F|-------7-5-3-5-3-2-3-----3----------7-5-3-5-3-2-3-5-3-2-|
C|-5-3-5---------------3-5------5-3-5---------------------|
G|--------------------------------------------------------|
C|--------------------------------------------------------|

repeat the whole thing (this part is the chorus as well).

listen to the song for timing.
it's my first tab so please be nice ;)
Tap to rate this tab
 
# A B C D E F G H I J K L M N O P Q R S T U V W X Y Z