Song name
# A B C D E F G H I J K L M N O P Q R S T U V W X Y Z

Forever Never - Youre The Voice tab

Probably not right but ive given it a go and it sounds right.
all i have done is the power chords so more is needed for the strumming pattern.

Intro/Verse
e|--------------------------------------------------|
B|--------------------------------------------------|
G|14---16---12---11--12---14------------------------|   X3
D|--------------------------------------------------|
A|12---14---10---9---10---12------------------------|
E|--------------------------------------------------|

Pre Chorus
e|--------------------------------------------------|
B|--------------------------------------------------|
G|---------------------------------------------9----|   X2
D|-7---9---7-----7---9---7-----7---9---7---9---9----|
A|-7---9---7-----7---9---7-----7---9---7---9---7----|
E|-5---7---5-----5---7---5-----5---7---5---7--------|

Chorus
e|--------------------------------------------------|
B|--------------------------------------------------|
G|-9-------------7----------------------------------|
D|-9-------------7------7---------------------------|  X2
A|-7-------------5------7---------------------------|
E|----------------------5---------------------------|

Solo
e|--------------------------------------------------|
B|--------------------------------------------------|
G|------6--------6--------6--9--7--6----------------|
D|7--9-----7--9-----7--9--------------9--7--9--7----|
A|------------------------------------------------10|
E|--------------------------------------------------|

e|--------------------------------------------------|
B|--------------14----------14----------14--17--15--|
G|-------14-16------14--16------14--16--------------|
D|7--9----------------------------------------------|
A|--------------------------------------------------|
E|--------------------------------------------------|
  
e|--------------------------------------------------|
B|14----------------------17--15--14----------------|
G|----16--14--16--14------------------16--14--16--14|
D|--------------------17----------------------------|
A|--------------------------------------------------|
E|--------------------------------------------------|

e|--------------------------------------------------|
B|--------------------------------------------------|
G|----14--16--13------------------------------------|
D|17------------------------------------------------|
A|--------------------------------------------------|
E|--------------------------------------------------|
Tap to rate this tab
 
# A B C D E F G H I J K L M N O P Q R S T U V W X Y Z