Song name
# A B C D E F G H I J K L M N O P Q R S T U V W X Y Z

Forever The Sickest Kids - Bundle Up tab

Verse, Chorus,'

e--0-----0-----0-----0-----0------------------------------------------------|
b--0-----0-----0-----0-----0------------------------------------------------|
g--9-----0-----6-----4-----2------------------------------------------------|
d--9-x8--7-x8--6-x4--4-x4--2-x8---------------------------------------------|
a--7-----7-----4-----2-----0------------------------------------------------|
E--0-----5-----0-----0-----0------------------------------------------------|

KEEP REPEATING UNTIL YOU GET TO THE PART WHERE HE SAYS "So baby baby tonight could be 
night....." AND PLAY THIS.....

e--0-----0-----0-----0-----0------------------------------------------------|
b--0-----0-----0-----0-----0------------------------------------------------|
g--0-----9-----6-----4-----2------------------------------------------------|
d--7-x8--9-x8--6-x4--4-x4--2-x8-------------x4------------------------------|
a--7-----7-----4-----2-----0------------------------------------------------|
E--5-----0-----0-----0-----0------------------------------------------------|

THEN REST WHILE HE SINGS "We've gotta bundle up" and on "Tomorrow" PLAY THIS

e--X-----0-----0-----0-----0------------------------------------------------|
b--R-----0-----0-----0-----0------------------------------------------------|
g--E-----0-----6-----4-----2------------------------------------------------|
d--S-x8--7-x8--6-x4--4-x4--2-x8-------------X2------------------------------|
a--T-----7-----4-----2-----0------------------------------------------------|
E--X-----5-----0-----0-----0------------------------------------------------|

AND THAT'S IT HOPE YOU LIKE IT
Tap to rate this tab
 
# A B C D E F G H I J K L M N O P Q R S T U V W X Y Z