Song name
# A B C D E F G H I J K L M N O P Q R S T U V W X Y Z

Forever The Sickest Kids - Hey Brittany tab

Band: Forever the Sickest Kids
Song: Hey Brittany
Album: Underdog Alma Mater
Tunning: Drop D
 
                        This tab was done by watching JCcovers2 video on youtube.
                                    Listen to song for strumming.
Intro                                       
                                        Last time end on 
e|-------------------------------------|-----------------|
B|-------------------------------------|-----------------|
G|-----------------------------------x2|-----------------|
D|-3-3-3--2h3p2h3/7--3333333--5555-----|----3~-----------|
A|-3-3-3-------------3333333--5555-----|----3~-----------|
D|-3-3-3-------------3333333--5555-----|----3~-----------|
PM . . .             .......  ....


Verse
e|------------------------------------------------------|
B|------------------------------------------------------|
G|-----777--5---------777--5--------7/9-----------------|
D|-3---xxx--x--333~---xxx--x--333---x/x-----------------|
A|-3---555--3--333~---555--3--333---5/7-----------------|
D|-3-----------333~-----------333-----------------------|
PM     ..      ..     ..      ..

e|------------------------------------------------------|
B|------------------------------------------------------|
G|-----------------5555------------------------5555-----|
D|-333333--555555--5555--5555--333333--555555--5555--5--|
A|-333333--555555--3333--2222--333333--555555--3333--2--|
D|-333333--555555--------------333333--555555-----------|
PM ......  ......  ....  ....  ......  ......  ... 


Chorus
e|------------------------------------------------------|
B|------------------------------------x2----------------|
G|------------------------------------------------------|
D|-33333333333333--77777777--55555555-------------------|
A|-33333333333333--77777777--55555555-------------------|
D|-33333333333333--77777777--55555555-------------------|

e|------------------------------------------------------|
B|--------------------------x2--------------------------|
G|------------------------------------------------------|
D|-33-3/-5-55---7-5-7-5---------------------------------|
A|-33-3/-5-55-----------5-------------------------------|
D|-33-3/-5-55-------------------------------------------|


Second Verse
e|------------------------------------------------------|
B|-----------------------x2-----------------------------|
G|-------------55---------------------------------------|
D|--33-3/5-55--55---------------------------------------|
A|--33-3/5-55--33--3-5-0--------------------------------|
D|--33-3/5-55-------------------------------------------|

e|------------------------------------------------------|
B|------------------------------------------------------|
G|-----777--5---------777--5--------7/9-----------------|
D|-3---xxx--x--333~---xxx--x--333---x/x-----------------|
A|-3---555--3--333~---555--3--333---5/7-----------------|
D|-3-----------333~-----------333-----------------------|
PM     ..      ..     ..      ..

e|------------------------------------------------------|
B|------------------------------------------------------|
G|-----------------5555------------------------5555-----|
D|-333333--555555--5555--5555--333333--555555--5555--5--|
A|-333333--555555--3333--2222--333333--555555--3333--2--|
D|-333333--555555--------------333333--555555-----------|
PM ......  ......  ....  ....  ......  ......  ... 


Second Chorus
e|------------------------------------------------------|
B|------------------------------------------------------|
G|------------------------------------------------------|
D|-33333333333333--77777777--55555555--333333333333333--|
A|-33333333333333--77777777--55555555--333333333333333--|
D|-33333333333333--77777777--55555555--333333333333333--|

e|------------------------------------------------------|
B|------------------------------------------------------|
G|------------------------------------------------------|
D|-77777777--5-5-5-5-5-5--3~----------------------------|
A|-77777777--5-5-5-5-5-5--3~----------------------------|
D|-77777777--5-5-5-5-5-5--3~----------------------------|
PM           . . . . . .  


Bridge
e|------------------------------------------------------|
B|----------------------------------x2------------------|
G|------------------------------------------------------|
D|--5----------------5----------------------------------|
A|----3----5/8-7-5-----3---5/7-5-3----------------------|
D|-3----3-----------3----5------------------------------|
PM .. . .      . .  .. . .     . .

e|------------------------------------------------------|
B|------------------------------------------------------|
G|------------------------------------------------------|
D|--5----------------5--------------5--------------5-5-5|
A|----3----5/8-7-------3---5/7-5-3----3---5/8-7----3-5-3|
D|-3----3-----------3----5---------3----3-------3--3-3-3|
PM .. . .      .    .. . .     . . .. . .       .  


Last Chorus/ Outro
e|------------------------------------------------------|
B|------------------------------------------------------|
G|------------------------------------------------------|
D|-3333333333333--77777777--555555555---3-3-3-3~--------|
A|-3333333333333--77777777--555555555---3-3-3-3~--------|
D|-3333333333333--77777777--555555555---3-3-3-3~--------|
PM                                      . . . 

e|--------------------------------------------------------|
B|--------------------------------------------------------|
G|------------------------------------------------------5~|
D|-3333333--5555--3-3-3-3~--3333333--5555-5-5-5-5-5-5-5-5~|
A|-3333333--5555--3-3-3-3~--3333333--5555-5-5-5-5-5-5-5-3~|
D|-3333333--5555--3-3-3-3~--3333333--5555-5-5-5-5-5-5-5---|
PM .......  ....  . . .     .......  .... . . . . . . .


Tab Done By Jessica (JessicaGonzo) Let me know if there is any corrections needed.
Tap to rate this tab
# A B C D E F G H I J K L M N O P Q R S T U V W X Y Z