Song name
# A B C D E F G H I J K L M N O P Q R S T U V W X Y Z

Forever The Sickest Kids - Shes A Lady tab

KOLBY1300

ok idk if this is correct but i was watching someone play it on youtube.como
and i tried to make out the chords he was playing

you can figure out the picking and beat

e|-1-1--1--1--------------------|
b|-0-0--0--0--------------------|
g|-2-2--2--2--------------------|
d|-3-3--3--3--2---2-2-2---------|
a|-3-3--3--3--0---0-0-0-2-2-2-2-|
e|-x-x--x--x------------0-0-0-0-|

e|-1-1--1--1--------------------|
b|-0-0--0--0--------------------|
g|-2-2--2--2--------------------|
d|-3-3--3--3--2---2-2-2---------|
a|-3-3--3--3--0---0-0-0-2-2-2-2-|
e|-x-x--x--x------------3-3-3-3-|im not sure of that last chord.
Tap to rate this tab
 
# A B C D E F G H I J K L M N O P Q R S T U V W X Y Z