Song name
# A B C D E F G H I J K L M N O P Q R S T U V W X Y Z

Forever The Sickest Kids - Shes A Lady Acoustic tab

-------------------------------------------------------------------------------
			     She’s a Lady – Forever the Sickest Kids
-------------------------------------------------------------------------------
Tabbed by: laxduck
Email: super_squirrel26@yahoo.com

Notes: I only included strumming for the intro/verse because after that it’s not as 
in my opinion.
I based this off a video on youtube of Caleb playing this behind a random building and 
doesn’t get to the bridge,
 which is why it is not included.
I will work to get that eventually.

Chorus can be played either as tabbed or with the same chords used in the verse (in the 
order no less).
 I didn’t write in the pause, but if you know the song you
know that he sings the line “She’s a Lady” while the first chord rings.

During the second part of the prechorus, I really can’t decide which chord to play while 
“…return to me”
so I tabbed the one I play, but you might use something different and it would sound fine.

As far as the bridge goes, I didn’t tab anything, but play around between a

C, G, F and Am and you’ll probably figure it out.
I just have a serious lack of patience to get it right at this moment.

Lastly, this is my first tab, so I just hope it works for you.

\ = down stroke
V = up stroke
~ = let ring

Tuning: Standard EADGBe

Intro/Verse:

e|-0--0---0-0-0---0-0-0-0-0-0-0-0-0----|
B|-1--1---1-1-1---1-1-1-1-1-1-1-1-1----|
G|-0--0---0-0-0---0-2-2-2-2-0-0-0-0----|
D|-3--3---3-3-3---3-2-2-2-2-0-0-0-0----|
A|-3--3---3-3-3---3-0-0-0-0-2-2-2-2----|
E|-x--x---x-x-x---x-x-x-x-x-3-3-3-3----|  Repeat a bunch
   \  v   v \ v   v \ v \ v \ v \ v
Pre-Chorus:

e|-0-0000~--0--000------|
B|-1-1111~--1--111------|
G|-0-0000~--2--000------|
D|-3-3333~--2--000------|
A|-3-3333~--0--022------|
E|-x-xxxx~--x—-x33------| x2

e|-0---------------------0--------0-----------0-----------------|
B|-1---------------------1--------1-----------1-----------------|
G|-0---------------------2--------0-----------0-----------------|
D|-3---------------------2--------3-----------0-----------------|
A|-3---------------------0--------3-----------2-----------------|
E|-x---------------------x--------x-----------3-----------------|
   “Did you scream…”   “Cry…”    “Return…”  “Think that I’m not worth…”


Chorus:

e|--------------------------------------------------|
B|--------------------------------------------------|
G|--------------------------------------------------|
D|-3-3-3~----------7-7-7-7—-5       ----------------|
A|-3-3-3~----------7-7-7-7—-5 strum ----------------|
E|-1-1-1~----------5-5-5-5—-3       ----------------| 2x

Have fun, and enjoy!
Tap to rate this tab
# A B C D E F G H I J K L M N O P Q R S T U V W X Y Z