Song name
# A B C D E F G H I J K L M N O P Q R S T U V W X Y Z

Forever The Sickest Kids - Men In Black tab

Help us improve GuitareTab! Take a short survey!
Song: Men In Black
Artist: Forever the Sickest Kids
Album: Punk Goes Crunk

okay, so this is my first tab so dont expect it to be 100% accurate. but it is very close
alright well lets get started. its is in drop D(DADGBE)

Intro
0:06
e|-------------------|
b|-------------------|
g|-------------------|
d|-17---10---11------|
a|-15x8-10x8-11x8-x2-|
d|-15---10---11------|
..here come the men in black...


Verse
0:23
|------------------------------------------------------------------------|
|------------------------------------------------------------------------|
|----------------------------------------17------------------------------|
|-15h1818-15h18-15h18h20br-15h18181818-15--20p18-------------------------|
|------------------------------------------------------------------------|
|------------------------------------------------------------------------|

0:41
|------------------------------------------------------------------------|
|------------------------------------------------------------------------|
|------------------------------------------------------------------------|
|-7--7-7---4--4-4--7-7---------------------------------------------------|
|-7--7-7---4--4-4--7-7---------------------------------------------------|
|-7--7-7---4--4-4--7-7---------------------------------------------------|


|------------------------------------------------------------------------|
|------------------------------------------------------------------------|
|----------------------------------------17------------------------------|
|-15h1818-15h18-15h18h20br-15h18181818-15--20p18-------------------------|
|------------------------------------------------------------------------|
|------------------------------------------------------------------------|

Chorus
e|-------------------|
b|-------------------|
g|-------------------|
d|-17---10---11------|
a|-15x8-10x8-11x8-x2-|
d|-15---10---11------|

short part of what i believe to be a bass at 1:16

freaking awesome part at 1:46
(all palm muted)
|----------------------------|
|----------------------------|
|-P----P---P----P---P----P---|
|-12---9---10---7---12---9---|
|-12x6-9x6-10x6-7x6-12x6-9x6-|
|-12---9---10---7---12---9---|

1:55
|----------------------------|
|----------------------------|
|----P-P---------------------|
|-6666666--------------------|
|-6666666--------------------|
|-6666666--------------------|

Sorry, i will finish the rest later. please leave me and tab and let me know how it 
out.
Related for Men In Black tab