Guitaretab - guitar tabs
Song name
# A B C D E F G H I J K L M N O P Q R S T U V W X Y Z

Forever The Sickest Kids - My Worst Nightmare tab

This is what i got 4 the tab. its not perfect but its something 2 work with.
 ive been wanting to play this in my band but i couldnt get it right so pleez
pleez make corrections!

Standard Tuning

Intro - Piano
|-------------------------------------|
|-------------------------------------|
|-------12-10-9-17-12-9-10-9----------|
|-10-12----------------------10-12----|
|-------------------------------------|
|-------------------------------------| x2

Pre Verse
|-------------------------------------|
|-------------------------------------|
|-55555555----------22222222----------|
|-55555555-33333333-22222222-55555555-|
|-33333333-33333333-00000000-55555555-|
|----------11111111----------33333333-|

|-------------------------------|
|-------------------------------|
|-55555555----------2xxxxxx2----|
|-55555555-33333333-2xxxxxx2-x5-|
|-33333333-33333333-0xxxxxx0-x5-|
|----------11111111----------x3-|

Chorus
|--------------------------------------------------------------------|
|--------------------------------------------------------------------|
|--------------------------------------------------------------------|
|-33333333-7777-5555-333333-77-55555555-33333333-7777-5555-22-33-7-5-|
|-33333333-7777-5555-333333-77-55555555-33333333-7777-5555-22-33-7-5-|
|-11111111-5555-3333-111111-55-33333333-11111111-5555-3333-00-11-5-3-|

Post Chorus
|-----------------------|
|-----------------------|
|-----------------------|
|-3-3-77-55-2-2-7-55-55-|
|-3-3-77-55-2-2-7-55-55-|
|-1-1-55-33-0-0-5-3333-|

Verse (comment if u know how they really play it)
|-----------0------\--------------------------------------------|
|---0---0---0---0---\-------------------------------------------|
|---5---5---9---7---->x2----------------------------------------|
|--3-3-3-3-7-7-5-5--/-------------------------------------------|
|-3---3---7---5----/--------------------------------------------|
|-THIS-IS-WRONG-BUT-I-IMPROVISE-ALONG-THESE-LINES-FOR-THIS-PART-|

Pre Chorus
|----------------|
|----------------|
|----------------|
|-33333333-55555-|
|-33333333-55555-|
|-11111111-33333-|

Chorus
|----------------------------------------------------------|
|----------------------------------------------------------|
|----------------------------------------------------------|
|-33333333-7777-5555-333333-77-55555555-33333333-7777-5555-|
|-33333333-7777-5555-333333-77-55555555-33333333-7777-5555-|
|-11111111-5555-3333-111111-55-33333333-11111111-5555-3333-|

|-------------------|
|-------------------|
|-------------------|
|-22-33-7-xx7-xx5-5-|
|-22-33-7-xx7-xx5-5-|
|-00-11-5-xx5-xx3-3-|
[ Tab from: http://www.guitaretab.com/f/forever-the-sickest-kids/111725.html ]
|--------------------------------------------------------------------|
|--------------------------------------------------------------------|
|--------------------------------------------------------------------|
|-33333333-7777-5555-333333-77-55555555-33333333-7777-5555-22-33-7-5-|
|-33333333-7777-5555-333333-77-55555555-33333333-7777-5555-22-33-7-5-|
|-11111111-5555-3333-111111-55-33333333-11111111-5555-3333-00-11-5-3-|

Interlude
|------------------------------------|
|------------------------------------|
|-9999109999999121299555512121277777-|
|------------------------------------|
|------------------------------------|
|--------THIS-PART-NEEDS-HELP--------| x2
PM..... ........ . ....... . . .....

Theres also a 2nd guitar over the top of that but i cant figure it out

|------------------------|
|------------------------|
|------------------------|
|---------------55555555-|
|-x///////////x-55555555-|
|-x/PICKSLIDE/x-33333333-|

|------------------------------------|
|------------------------------------|
|-55555555---------------------------|
|-55555555-55555555-3333333333333333-|
|-33333333-55555555-3333333333333333-|
|----------33333333-1111111111111111-|

|------------------------------|
|------------------------------|
|-55555555---------------------|
|-55555555-55555555-22-33-7-5~-|
|-33333333-55555555-22-33-7-5~-|
|----------33333333-00-11-5-3~-|

I cant figure out the lead guitar during this part either

Chorus
|----------------------------------------------------|
|----------------------------------------------------|
|----------------------------------------------------|
|-3--7777-5555-333333-77-55555555-33333333-7777-5555-|
|-3--7777-5555-333333-77-55555555-33333333-7777-5555-|
|-1--5555-3333-111111-55-33333333-11111111-5555-3333-|

|-------------------|
|-------------------|
|-------------------|
|-22-33-7-xx7-xx5-5-|
|-22-33-7-xx7-xx5-5-|
|-00-11-5-xx5-xx3-3-|

|--------------------------------------------------------------------|
|--------------------------------------------------------------------|
|--------------------------------------------------------------------|
|-33333333-7777-5555-333333-77-55555555-33333333-7777-5555-22-33-7-5-|
|-33333333-7777-5555-333333-77-55555555-33333333-7777-5555-22-33-7-5-|
|-11111111-5555-3333-111111-55-33333333-11111111-5555-3333-00-11-5-3-|

Outro - Piano
|-------------------------------------|
|-------------------------------------|
|-------12-10-9-17-12-9-10-9----------|
|-10-12----------------------10-12----|
|-------------------------------------|
|-------------------------------------|

-Sam 0
Related for My Worst Nightmare tab