Song name
# A B C D E F G H I J K L M N O P Q R S T U V W X Y Z

Forever The Sickest Kids - She Likes Bittersweet Love chords

This is my first tab. Everything seems to be right. The third guitar part was really 
to hear so I dunno about that one. Enjoy! :) Any questions email me at jmarylandboyk13@aim.com
 Forever the Sickest Kids
 She Likes (Bittersweet Love)Intro
 The Weekend: Friday
 Drop D Tuning


     Guitar 1:
   e|-----------------------------------------------------------------|
   B|-----------------------------------------------------------------|
   G|--11-11-12-12-11-9-9-7-11-4---11-11-12-12-11-9-9-7-7-------------|
   D|-----------------------------------------------------------X2----|
   A|--9--9--10-10-9--7-7-5-9--2---9--9--10-10-9--7-7-5-5-------------|
   D|-----------------------------------------------------------------|

     Guitar 2:
   e|-----------------------------------------------------------------|
   B|-----------------------------------------------------------------|
   G|-----------------------------------------------------------------|
   D|--33-55-7-7-55-5---33-55-7-7-55----------------------------------|
   A|--33-55-7-7-55-5---33-55-7-7-55----X2----------------------------|
   D|--33-55-7-7-55-5---33-55-7-7-55----------------------------------|

     Guitar 3: Only play second time.
   e|-----------------------------------------------------------------|
   B|-----------------------------------------------------------------|
   G|-14-14-16-16-14-12-12-11-12-11---14-14-16-16-14-12-12-11-11------|
   D|-----------------------------------------------------------------|
   A|-12-12-14-14-12-10-10-9--10-9----12-12-14-14-12-10-10-9--9-------|
   D|-----------------------------------------------------------------|
Tap to rate this tab
# A B C D E F G H I J K L M N O P Q R S T U V W X Y Z