Song name
# A B C D E F G H I J K L M N O P Q R S T U V W X Y Z

Forever The Sickest Kids - Do Or Die tab

Do or Die

Tuning: standard (EADGBe)

LISTEN TO SONG FOR CORRECT RHYTHMS!!

Intro pt. 1
e|--1-2-1-----1-4ó1----------------|
B|2-------2-2-------2-2------------|
G|---------------------3-1---------|  x2
D|-------------------------4-3-4-1-|
A|---------------------------------|
E|---------------------------------|

Pt. 2                          
e|--------------------------|
B|--------------------------|
G|6-------------------------|  x2
D|6-x8---4------8------6----|
A|4------4-x8---8-x8---6-x8-|
E|-------2------6------4----|

Verse 1        0:26
                I realize...
e|--------|    |--------------------------|
B|--------|    |--------------------------|
G|6-6\--3-|    |6-------------------------|
D|6-6\--3-|    |6-x8---4------8------6----|
A|4-4\--1-|    |4------4-x8---8-x8---6-x8-|
E|--------|    |-------2------6------4----|
               PM. . . . . . . . . . . .

Chorus         0:52
e|--------------------------|
B|--------------------------|
G|6-------------------------|  x2
D|6-x8---4------8------6----|
A|4------4-x8---8-x8---6-x8-|
E|-------2------6------4----|

Intro pt.2     1:06
e|--------------------------|
B|--------------------------|
G|6-------------------------|
D|6-x8---4------8------6----|
A|4------4-x8---8-x8---6-x8-|
E|-------2------6------4----|

Verse 2        1:12
               Iím so sorry...
e|--------|    |--------------------------|
B|--------|    |--------------------------|      
G|6-6\--3-|    |6-------------------------|
D|6-6\--3-|    |6-x8---4------8------6----|
A|4-4\--1-|    |4------4-x8---8-x8---6-x8-|
E|--------|    |-------2------6------4----|
               PM. . . . . . . . . . . .




Chorus         1:38
e|--------------------------|
B|--------------------------|
G|6-------------------------|  x4
D|6-x8---4------8------6----|
A|4------4-x8---8-x8---6-x8-|
E|-------2------6------4----|

Bridge         2:04
(2nd time only)
e|--------------------------|
B|--------------------------|
G|6-------------------------|  x2
D|6-x8---4------8------6----|
A|4------4-x8---8-x8---6-x8-|
E|-------2------6------4----|

Chorus         2:35
e|--------------------------|      |--------|
B|--------------------------|      |--------|
G|6-------------------------|  x6  |6-6\--3-|
D|6-x8---4------8------6----|      |6-6\--3-|
A|4------4-x8---8-x8---6-x8-|      |4-4\--1-|
E|-------2------6------4----|      |--------|


/   slide up
\   slide down
h   hammer-on
p   pull-off
~   vibrato
+   harmonic
PM  palm mute
Tap to rate this tab
# A B C D E F G H I J K L M N O P Q R S T U V W X Y Z