Song name
# A B C D E F G H I J K L M N O P Q R S T U V W X Y Z

Forever The Sickest Kids - That For Me tab

"That For Me" by Forever The Sickest Kids
Tabbed by:EvilMudkipz           Key
Tuning:Drop D [DADGBe]        -------
Enjoy ^_^                     ^ = Bend
                              ~ = Let Ring
                              / = Slide
                              . = Palm Mute
Intro (Guitar 1)         
e|----------------------------------------------------------|
B|----------------------------------------------------------|
G|--------44-44-----------------------44-44-----------------|
D|-2-2----44-44--1-1----22-22--2-2----44-44--1-1----66-44~--|
A|-2-2----22-22--1-1----22-22--2-2----22-22--1-1----66-44~--|
D|-2-2-----------1-1----22-22--2-2-----------1-1----66-44~--|
PM        .  .          .  .          .  .          .  .
(Guitar 2) 
e|----------------------------------------------------------|  
B|------7~--------------------------7~----------------------|
G|----8^------------8^------------8^------------8^----------|
D|--------------------9~--------------------------9~--------|
A|----------------------------------------------------------|
D|----------------------------------------------------------|

Verse 1
e|------------------------------------|
B|------------------------------------|
G|----------44444444------------------|
D|-22222222-44444444-44444444-666-444-|
A|-22222222-22222222-44444444-666-444-|
D|-22222222----------44444444-666-444-|
PM ........ ........ ........ ... ...
e|------------------------------------|
B|------------------------------------|
G|----------44444444------------------|
D|-22222222-44444444-44444444~--------|
A|-22222222-22222222-44444444~--------|
D|-22222222----------44444444~--------|
PM ........ ........ .......
e|------------------------------------|
B|------------------------------------|
G|----444-----444-4-4-----------------|
D|222-444-444-444-4-4-----------------|
A|222-222-444-222-2-2-----------------|
D|222-----444-------------------------|

e|------------------------------------|
B|------------------------------------|
G|----------44444444------------------|
D|-22222222-44444444-44444444-666-444-|
A|-22222222-22222222-44444444-666-444-|
D|-22222222----------44444444-666-444-|
Pm ........ ........ ........
e|------------------------------------|
B|------------------------------------|
G|----------44444444------------------|
D|-22222222-44444444-44444444-4-4-46--|
A|-22222222-22222222-44444444-4-4-46--|
D|-22222222----------44444444-4-4-46--|
Pm ........ ........ ........

Chorus
e|--------------------------------------|
B|------444444444444--------------------|
G|------444444444444--------------------|
D|-2222-222222222222-66666666-22222222--|x2
A|-2222--------------66666666-22222222--|
D|-2222--------------66666666-22222222--|

e|-----------------------------------------------------------|
B|-----------------------------------------------------------|
G|--------44-44-----------------------44-44------------------|
D|-2-2----44-44--1-1----66-44--2-2----44-44--111--666-4444---|
A|-2-2----22-22--1-1----66-44--2-2----22-22--111--666-4444---|
D|-2-2-----------1-1----66-44--2-2-----------111--666-4444---|
Pm        .  .          .  .          .  .   .

(I Count Down The Steps To Your Apartmant)

Verse 2
e|-------------------------------------------------|
B|-------------------------------------------------|
G|-----------------------44444444------------------|
D|-44444444-66666666-444-44444444-44444444-666-444-|
A|-44444444-66666666-444-22222222-44444444-666-444-|
D|-44444444-66666666-444----------44444444-666-444-|
PM ........ ........ ... ........ ........
e|------------------------------------|
B|------------------------------------|
G|---------4-4-4/6/4------------------|
D|-2-2-2-2-4-4-4/6/4-2-2-2-2--666-444-|x2
A|-2-2-2-2-2-2-2/4/2-2-2-2-2--666-444-|
D|-2-2-2-2-----------2-2-2-2--666-444-|

Chorus
e|--------------------------------------|
B|------444444444444--------------------|
G|------444444444444--------------------|
D|-2222-222222222222-66666666-22222222--|x4
A|-2222--------------66666666-22222222--|
D|-2222--------------66666666-22222222--|

Verse 3 (second time dont PM 666-444)
e|-----------------------------------------|
B|-----------------------------------------|
G|---------------44444444------------------|
D|-2~---22222222-44444444-44444444-666-444-|x2
A|-2~---22222222-22222222-44444444-666-444-|
D|-2~---22222222----------44444444-666-444-|
PM      ........ ........ ........ ... ...
e|----------------------------------------------------|
B|----------------------------------------------------|
G|--------44-44-----------------------44-44-----------|
D|-2-2----44-44--1-1----66-44--2-2----44-44--1-1--1---|
A|-2-2----22-22--1-1----66-44--2-2----22-22--1-1--1---|
D|-2-2-----------1-1----66-44--2-2-----------1-1--1---|
Pm        .  .          .  .          .  .   

(Acoustic Chorus)

e|----------------------|
B|----------------------|
G|-----444--------------|
D|-222-444-666--444-4-4-|
A|-222-222-666--444-4-4-|
D|-222-----666--444-4-4-|

Chorus
e|--------------------------------------|
B|------444444444444--------------------|
G|------444444444444--------------------|
D|-2222-222222222222-66666666-22222222--|x2
A|-2222--------------66666666-22222222--|
D|-2222--------------66666666-22222222--|

e|--------------------------------------|
B|--------------------------------------|
G|--------44-44-------------------------|
D|-2-2----44-44--1-1----2---------------|
A|-2-2----22-22--1-1----2---------------|
D|-2-2-----------1-1----2---------------|
Pm        .  .

Any questions comments or mistakes just let me know.
I can also add more of (Guitar 2) if people want me to.
Tap to rate this tab
 
# A B C D E F G H I J K L M N O P Q R S T U V W X Y Z