Song name
# A B C D E F G H I J K L M N O P Q R S T U V W X Y Z

Forever The Sickest Kids - She Likes Bittersweet Love tab

---------------------------------------
Song:::She Likes (Bittersweet Love)
Artist:Forever The Sickest Kids
Album::The Weekend: Friday
---------------------------------------
Tuning-- Dropped D (D A D G B e)
---------------------------------------



((Intro)) X2

Guitar 1:
e|-------------------------------------------|
B|-------------------------------------------|
G|-------------------------------------------|
D|-16//--00-55-7-7-99-9---00-55-7-7-00-------|
A|-16//--00-55-7-7-99-9---00-55-7-7-00-------|
D|-16//--00-55-7-7-99-9---00-55-7-7-00-------|

Guitar 2:
e|-----------------------------------------------------------------|
B|-----------------------------------------------------------------|
G|--11-11-12-12-11-9-9-7-11-4---11-11-12-12-11-9-9-7-7-------------|
D|-----------------------------------------------------------------|
A|--9--9--10-10-9--7-7-5-9--2---9--9--10-10-9--7-7-5-5-------------|
D|-----------------------------------------------------------------|


((Verse 1))

Guitar 1 
e|-----------------------------------------------------|
B|-----------------------------------------------------|
G|-----------------------------------------------------|
D|-5-5-5-5--7-7-7-7--0-0-0-0-0-0-0-0-------------------|
A|-5-5-5-5--7-7-7-7--0-0-0-0-0-0-0-0----X3-------------|
D|-5-5-5-5--7-7-7-7--0-0-0-0-0-0-0-0-------------------|
PM . . . .  . . . .  . . . . . . . .

Guitar 2 Kinda hard to hear,,,Listen for it.
e|-------------|
B|-------------|
G|-------------|
D|-------------|
A|--7h9-7p-X3--|
D|-------------|

Guitar 1
e|--------------------------------------------|
B|--------------------------------------------| Second time
G|--------------------------------------------| slowly
D|-2-2-2-2-2-2-2-2--5-5-5-5-5-5-5-5-----------| un-mute the
A|-2-2-2-2-2-2-2-2--5-5-5-5-5-5-5-5-----X2----| notes
D|-2-2-2-2-2-2-2-2--5-5-5-5-5-5-5-5-----------|
PM . . . . . . . .  . . . . . . . . 

Guitar 2 
e|---------------------------------------------------|
B|---------------------------------------------------|
G|--11~~-7~~-11-11-11-11-11-11-11-11-11-11-11-11//---|
D|---------------------------------------------------|
A|---------------------------------------------------|
D|---------------------------------------------------|


((Chorus 1))

Both Guitars
e|--------------------------------------|
B|--------------------------------------|
G|--------------------------------------|
D|--00-55-7-7-99-9---00-55-7-7-00-------|
A|--00-55-7-7-99-9---00-55-7-7-00---X2--|
D|--00-55-7-7-99-9---00-55-7-7-00-------|


((Post-Chorus))

Guitar 1:
e|-------------------------------------------|
B|-------------------------------------------|
G|-------------------------------------------|
D|-16//--00-55-7-7-99-9---00-55-7-7-00-------|
A|-16//--00-55-7-7-99-9---00-55-7-7-00-------|
D|-16//--00-55-7-7-99-9---00-55-7-7-00-------|

Guitar 2:
e|-----------------------------------------------------------------|
B|-----------------------------------------------------------------|
G|--11-11-12-12-11-9-9-7-11-4---11-11-12-12-11-9-9-7-7-------------|
D|-----------------------------------------------------------------|
A|--9--9--10-10-9--7-7-5-9--2---9--9--10-10-9--7-7-5-5-------------|
D|-----------------------------------------------------------------|


((Verse 2))

Guitar 1 Play Verse 1

Guitar 2
e|------------------------------------------------------|
B|------------------------------------------------------|
G|-11-11-11-11-11-11-11-11-11-11-11-11-12-11------------|
D|-------------------------------------------14-12------|
A|------------------------------------------------------|
D|------------------------------------------------------|
PM  .  .  .  .  .     .  .  .  .     .

e|------------------------------------------------------|
B|------------------------------------------------------|
G|-11-11-11-11-11-11-11-11-11-11-11-11-12-11------------|
D|-------------------------------------------14-12------|
A|------------------------------------------------------|
D|------------------------------------------------------|
PM  .  .     .  .     .     .  .     .

e|------------------------------------------------------|
B|------------------------------------------------------|
G|-11-11-11-11-11-11-11-11-11-11-11-11-12-11------------|
D|-------------------------------------------14-12------|
A|------------------------------------------------------|
D|------------------------------------------------------|
PM  .  .     .  .     .     .  .     .

Guitar 2 
e|---------------------------------------------------|
B|---------------------------------------------------|
G|--11~~-7~~-11-11-11-11-11-11-11-11-11-11-11-11//---|
D|---------------------------------------------------|
A|---------------------------------------------------|
D|---------------------------------------------------|


((Chorus 2))

Both Guitars
e|--------------------------------------|
B|--------------------------------------|
G|--------------------------------------|
D|--00-55-7-7-99-9---00-55-7-7-00-------|
A|--00-55-7-7-99-9---00-55-7-7-00-------|
D|--00-55-7-7-99-9---00-55-7-7-00-------|

e|--------------------------------------|
B|--------------------------------------|
G|--------------------------------------|
D|--00-55-7-7-99-9---00-55-7------------|
A|--00-55-7-7-99-9---00-55-7------------|
D|--00-55-7-7-99-9---00-55-7------------|


((Post-Chorus)) X2

Guitar 1:
e|-------------------------------------------|
B|-------------------------------------------|
G|-------------------------------------------|
D|-16//--00-55-7-7-99-9---00-55-7-7-00-------|
A|-16//--00-55-7-7-99-9---00-55-7-7-00-------|
D|-16//--00-55-7-7-99-9---00-55-7-7-00-------|

Guitar 2:
e|-----------------------------------------------------------------|
B|-----------------------------------------------------------------|
G|--11-11-12-12-11-9-9-7-11-4---11-11-12-12-11-9-9-7-7-------------|
D|-----------------------------------------------------------------|
A|--9--9--10-10-9--7-7-5-9--2---9--9--10-10-9--7-7-5-5-------------|
D|-----------------------------------------------------------------|


((Bridge 1))
e|----------------------------------|
B|----------------------------------|
G|-7-7-7-7-7-7-7-7--9-9-9-9-9-9-9-9-|
D|----------------------------------|
A|----------------------------------|
D|----------------------------------|
PM . . . . . . . .  . . . . . . . .

e|------------------------------------------------|
B|------------------------------------------------|
G|-11-11-11-11-11-11-11-11--9-9-9-9-9-9-9-9-7~~--|
D|------------------------------------------------|
A|------------------------------------------------|
D|------------------------------------------------|
PM  .  .  .  .  .  .  .  .  . . . . . . . .


((Bridge 2))
e|---------------|
B|---------------|
G|---------------|
D|---7-7-77------|
A|---7-7-77------|
D|---7-7-77------|


((Chorus 1))
Both Guitars
e|--------------------------------------|
B|--------------------------------------|
G|--------------------------------------|
D|--00-55-7-7-99-9---00-55-7-7-00-------|
A|--00-55-7-7-99-9---00-55-7-7-00---X4--|
D|--00-55-7-7-99-9---00-55-7-7-00-------|


((Post-Chorus))

Guitar 1:
e|-------------------------------------------|
B|-------------------------------------------|
G|-------------------------------------------|
D|-16//--00-55-7-7-99-9---00-55-7-7-00-------|
A|-16//--00-55-7-7-99-9---00-55-7-7-00---X2--|
D|-16//--00-55-7-7-99-9---00-55-7-7-00-------|

Guitar 2:
e|-----------------------------------------------------------------|
B|-----------------------------------------------------------------|
G|--11-11-12-12-11-9-9-7-11-4---11-11-12-12-11-9-9-7-7-------------|
D|-------------------------------------------------------------X2--|
A|--9--9--10-10-9--7-7-5-9--2---9--9--10-10-9--7-7-5-5-------------|
D|-----------------------------------------------------------------|

Tap to rate this tab
# A B C D E F G H I J K L M N O P Q R S T U V W X Y Z