Song name
# A B C D E F G H I J K L M N O P Q R S T U V W X Y Z

Forever The Sickest Kids - Keeps On Bringing Me Down tab

---------------------------------------------------------------------------------------
Keeps On Bringing Me Down - Forever The Sickest Kids
---------------------------------------------------------------------------------------
I havenít seen any tabs out for this song yet, so I decided to tab it, comment and rate 
what you think, enjoy! It sounds right when I play along with it so it should be 
Canít wait for The Weekend: Saturday!! :D

Tuning: Drop-D

Intro
e|------------------------------------------------------------------------|
B|------------------------------------------------------------------------|
G|-/////////////////--22222222-44444444-6666666666666666-(x2)---2~--------|
D|-////pickslide////--22222222-44444444-6666666666666666--------2~--------|
A|-/////////////////--00000000-22222222-4444444444444444--------0~--------|
D|------------------------------------------------------------------------|

Verse - Those are 11ís not 1ís btw :)
e|-----------------------------------|
B|-----------------------------------|
G|-----------------------------(x2)--| (I know these are basically the same chords as
D|-777-79999-9911-11-7911-11---------|  the intro, but this is how itís played live.)
A|-777-79999-9911-11-7911-11---------|
D|-777-79999-9911-11-7911-11---------|

e|-0~----2~----4~---------------|
B|-2~----2~----4~---------------|
G|-2~----4~----6~----(x2)---2~--|
D|-2~----4~----6~-----------2~--|
A|-0~----2~----4~-----------0~--|
D|------------------------------|

Chorus
e|------------------------------------------------------|
B|------------------------------------------------------|
G|-------------------44444444-66666666-----(x2)---------|
D|-77777777-22222222-44444444-66666666------------------|
A|-77777777-22222222-22222222-44444444------------------|
D|-77777777-22222222------------------------------------|

e|------------------------------------------------------|
B|------------------------------------------------------|
G|-------------------44444444-66-6666-----(x2)----------|
D|-77777777-22222222-44444444-66-6666-------------------|
A|-77777777-22222222-22222222-44-4444-------------------|
D|-77777777-22222222------------------------------------|

Refrain
e|------------------------------------|
B|--14-14-14-14-12--------------------|
G|-----------------9h11p9----(x2)-2~--|
D|--------------------------------2~--|
A|--------------------------------0~--|
D|------------------------------------|

Verse
e|-----------------------------------|
B|-----------------------------------|
G|-----------------------------(x2)--|
D|-777-79999-9911-11-7911-11---------|
A|-777-79999-9911-11-7911-11---------|
D|-777-79999-9911-11-7911-11---------|

e|-0~----2~----4~---------------|
B|-2~----2~----4~---------------|
G|-2~----4~----6~----(x2)---2~--|
D|-2~----4~----6~-----------2~--|
A|-0~----2~----4~-----------0~--|
D|------------------------------|

Chorus
e|------------------------------------------------------|
B|------------------------------------------------------|
G|-------------------44444444-66666666-----(x2)---------|
D|-77777777-22222222-44444444-66666666------------------|
A|-77777777-22222222-22222222-44444444------------------|
D|-77777777-22222222------------------------------------|

e|------------------------------------------------------|
B|------------------------------------------------------|
G|-------------------44444444-66-6666-----(x2)----------|
D|-77777777-22222222-44444444-66-6666-------------------|
A|-77777777-22222222-22222222-44-4444-------------------|
D|-77777777-22222222------------------------------------|

Refrain
e|------------------------------------|
B|--14-14-14-14-12--------------------|
G|-----------------9h11p9----(x2)-2~--|
D|--------------------------------2~--|
A|--------------------------------0~--|
D|------------------------------------|

Bridge
e|------------------------------------------------------------|
B|------------------------------------------------------------|
G|-9-9-9-9-9-9-9-9-9-9-9-9-9-9-9-9/11-11-11-11-11-11-11-11----|
D|-x-x-x-x-x-x-x-x-x-x-x-x-x-x-x-x/-x--x--x--x--x--x--x--x----|
A|-7-7-7-7-7-7-7-7-7-7-7-7-7-7-7-7/-9--9--9--9--9--9--9--9----|
D|------------------------------------------------------------|
PM . .   .     .   .     .   .

e|------------------------------------------------------------|
B|------------------------------------------------------------|
G|-9-9-9-9-9-9-9-9-9-9-9-9-9-9-9-9/8-8-8-8-8-8-8-8------------|
D|-x-x-x-x-x-x-x-x-x-x-x-x-x-x-x-x/x-x-x-x-x-x-x-x------------|
A|-7-7-7-7-7-7-7-7-7-7-7-7-7-7-7-7/6-6-6-6-6-6-6-6------------|
D|------------------------------------------------------------|
PM . .   .     .   .     .   .

Solo
e|-----------------------------------|
B|-----------------------------------|
G|--9-9-9-9-9-9-9-9-9-9-9-9-9-9-9-9--|
D|--x-x-x-x-x-x-x-x-x-x-x-x-x-x-x-x--|
A|--7-7-7-7-7-7-7-7-7-7-7-7-7-7-7-7--|
D|-----------------------------------|

e|---------------------------------------------------------------------------------|
B|-9-9-9-9-9-9-9-9-7-7-7-7-7-7-7-7-12-12-12-12-12-12-12-12-12-12-12-12-12-12-12-12-|
G|-9-9-9-9-9-9-9-9-9-9-9-9-9-9-9-9--9--9--9--9--9--9--9--9--9--9--9--9--9--9--9--9-|
D|---------------------------------------------------------------------------------|
A|---------------------------------------------------------------------------------|
D|---------------------------------------------------------------------------------|

e|-12-12-12-12-12-12-12-12-12-12-11-11-11-12-12-12--|
B|--x--x--x--x--x--x--x--x--x--x--x--x--x--x--x--x--|
G|--9--9--9--9--9--9--9--9--9--9--9--9--9--9--9--9--|
D|--------------------------------------------------|
A|--------------------------------------------------|
D|--------------------------------------------------|

Chorus
e|------------------------------------------------------|
B|------------------------------------------------------|
G|-------------------44444444-66666666-----(x2)---------|
D|-77777777-22222222-44444444-66666666------------------|
A|-77777777-22222222-22222222-44444444------------------|
D|-77777777-22222222------------------------------------|

e|------------------------------------------------------|
B|------------------------------------------------------|
G|-------------------44444444-66-6666-----(x2)----------|
D|-77777777-22222222-44444444-66-6666-------------------|
A|-77777777-22222222-22222222-44-4444-------------------|
D|-77777777-22222222------------------------------------|

Outro
e|------------------------------------------------------|
B|------------------------------------------------------|
G|-22222222-44444444-6666666666666666-(x2)--------------|
D|-22222222-44444444-6666666666666666-------------------|
A|-00000000-22222222-4444444444444444-------------------|
D|------------------------------------------------------|
Tap to rate this tab
# A B C D E F G H I J K L M N O P Q R S T U V W X Y Z