Forever The Sickest Kids - Shes A Lady tab

Band: Forever the Sickest Kids
Song: She's a Lady	
Album: Underdog Alma Mater	
Tunning: Standard


Listen to the song for strumming.  
=================================================================

 /Guitar 1: Intro
e|-0--0--0--0---0--0--0--0---0--0--0--0-------0--0---0-------|\
B|-1--1--1--1---1--1--1--1---1--1--1--1-------1--1---1-------| \
G|-2--0--0--0---2--0--0--0---2--0--0--0-------2--0---0-------|  \ x1
D|-3--3--0--2---3--3--0--2---3--3--0--2-------3--3---0-------|  /
A|-3--3--2--3---3--3--2--3---3--3--2--3-------3--3---2-------| /
E|---------------------------------------------------3-------|/
 \
  \I'm in love...


 /Guitar 1:
e|-----------------------------------------------------------|\
B|-----------------------------------------------------------| \
G|-----------------------------------------------------------|  \ x2
D|-333333---777777---555555---333333---55555---555555--------|  /
A|-333333---777777---555555---333333---22222---333333--------| /
E|-111111---555555---333333---111111-------------------------|/
 \                                                           /
 /Guitar 2:                                                  \
e|-----------------------------------------------------------|\
B|----------10-----------------------------------10----------| \
G|----9--12----9~---9--9---------------------------12-10-9---|  \ x2
D|--12------------10-12-12-10-9------------10-9--------------|  /
A|--------------------------------10-12-10-------------------| /
E|-----------------------------------------------------------|/
 \
  \


 /Guitar 1:
e|-0--0--0--0---0--0--0--0---0--0--0--0-----0--0-------------|\
B|-1--1--1--1---1--1--1--1---1--1--1--1-----1--1-------------| \
G|-2--0--0--0---2--0--0--0---2--0--0--0-----2--0-------------|  \ x1
D|-3--3--0--2---3--3--0--2---3--3--0--2-----3--3----55-55-5--|  /
A|-3--3--2--3---3--3--2--3---3--3--2--3-----3--3----55-55-5--| /
E|--------------------------------------------------33-33-3--|/
 \                                                  .. .. .
  \She's backseat driver...


 /Guitar 1: Pre-Chorus
e|-----------------------------------------------------------|\
B|-----------------------------------------------------------| \
G|-----------------------------------------------------------|  \ x1
D|-33-33-3~--777--555--33-33-3~--77--5-----------------------|  /
A|-33-33-3~--777--555--33-33-3~--77--5-----------------------| /
E|-11-11-1~--555--333--11-11-1~--55--3-----------------------|/
 \ .. ..               .. .. 
  \

 /Guitar 1: Chorus
e|-----------------------------------------------------------|\
B|-----------------------------------------------------------| \
G|------------------------555555555--------------------------|  \ x1
D|-333333333---77777777---555555555----333333333---555555555-|  /
A|-333333333---77777777---333333333----333333333---555555555-| /
E|-111111111---55555555----------------111111111---333333333-|/
 \
  \Did you scream enough to make her cry?...

 /Guitar 1:
e|-----------------------------------------------------------|\
B|-----------------------------------------------------------| \
G|-----------------------------------------------------------|  \ x1
D|-333-----777-----55-55---333-----777---5-------------------|  /
A|-333-----777-----55-55---333-----777---5-------------------| /
E|-111-----555-----33-33---111-----555---3-------------------|/
 \
  \  She's a lady...


 /Guitar 1:
e|-----------------------------------------------------------|\
B|-----------------------------------------------------------| \
G|-----------------------------------------------------------|  \ x2
D|-333333---777777---555555---333333---55555---555555--------|  /
A|-333333---777777---555555---333333---22222---333333--------| /
E|-111111---555555---333333---111111-------------------------|/
 \                                                           /
 /Guitar 2:                                                  \
e|-----------------------------------------------------------|\
B|----------10-----------------------------------10----------| \
G|----9--12----9~---9--9---------------------------12-10-9---|  \ x2
D|--12------------10-12-12-10-9------------10-9--------------|  /
A|--------------------------------10-12-10-------------------| /
E|-----------------------------------------------------------|/
 \
  \

  \Take off your shoes, come in the room
  \And baby, let's try to argue.

 /Guitar 1:
e|-----------------------------------------------------------|\
B|-----------------------------------------------------------| \
G|-----5---7/9-------5---5h7------5---7/9--------------------|  \ x1
D|-5-7---7-------5-7---7------5-7---7------------55-55-5-----|  /
A|-----------------------------------------------55-55-5-----| /
E|-----------------------------------------------33-33-3-----|/
 \                                               .. .. .
  \Turn out the lights...


 /Guitar 1: PreChorus
e|-----------------------------------------------------------|\
B|-----------------------------------------------------------| \
G|-----------------------------------------------------------|  \ x1
D|-33-33-3---777--555--33-33-3--77--5------------------------|  /
A|-33-33-3---777--555--33-33-3--77--5------------------------| /
E|-11-11-1---555--333--11-11-1--55--3------------------------|/
 \ .. .. .             .. .. .
  \I'm too busy loving you...


 /Guitar 1: Chorus
e|-----------------------------------------------------------|\
B|-----------------------------------------------------------| \
G|------------------------555555555--------------------------|  \ x1
D|-333333333---77777777---555555555----333333333---555555555-|  /
A|-333333333---77777777---333333333----333333333---555555555-| /
E|-111111111---55555555----------------111111111---333333333-|/
 \
  \Did you scream enough to make her cry?...

 /Guitar 1:
e|-----------------------------------------------------------|\
B|-----------------------------------------------------------| \
G|-----------------------------------------------------------|  \ x1
D|-333-----777-----55-55---333-----777---5-------------------|  /
A|-333-----777-----55-55---333-----777---5-------------------| /
E|-111-----555-----33-33---111-----555---3-------------------|/
 \
  \ She's a lady...


 /Guitar 1:
e|-----------------------------------------------------------|\
B|-----------------------------------------------------------| \
G|---------------------222---------------222--------5~-------|  \ x1
D|-3-3-3-3-------333---222--7-5----333---222--7-5---5~-------|  /
A|-3-3-3-3-------333---000--7-5----333---000--7-5---3~-------| /
E|-1-1-1-1-------111--------5-3----111--------5-3------------|/
 \
  \
  
  \Here I am, there you go again (again)
  \And we will not ever be eighteen again (again)...

 /Guitar 1:
e|-----------------------------------------------------------|\
B|-----------------------------------------------------------| \
G|-55555555--------------------------------------------------|  \ x2
D|-55555555---55555555---33333333333333----------------------|  /
A|-33333333---22222222---33333333333333----------------------| /
E|-----------------------11111111111111----------------------|/
 \ ........   ........   ..............
  \And I'm worn out of fighting...

 /Guitar 1:
e|-----------------------------------------------------------|\
B|-----------------------------------------------------------| \
G|-55555555--------------------------------------------------|  \ x2
D|-55555555---55555555----33-3-33~--33-3-33~-----------------|  /
A|-33333333---22222222----33-3-33~--33-3-33~-----------------| /
E|------------------------11-1-11~--11-1-11~-----------------|/
 \
  \So here I am and dying...
 

  \Did you scream enough to make her cry?
  \It's a turn around...


 /Guitar 1:
e|-----------------------------------------------------------|\
B|-----------------------------------------------------------| \
G|-5---------------------------------------------------------|  \ x1
D|-5------------------3333333333333---55555555555------------|  /
A|-3------------------3333333333333---55555555555------------| /
E|--------------------1111111111111---33333333333------------|/
 \
  \..turn around

 /Guitar 1:
e|-----------------------------------------------------------|\
B|-----------------------------------------------------------| \
G|-----------------------------------------------------------|  \ x1
D|-333-333~-5/77~-777~-555/7---3333333---55555555------------|  /
A|-333-333~-5/77~-777~-555/7---3333333---55555555------------| /
E|-111-111~-3/55~-555~-333/5---1111111---33333333------------|/
 \
  \Did you scream enough to make her cry?..

 /Guitar 1:
e|-----------------------------------------------------------|\
B|-----------------------------------------------------------| \
G|-----------------------------------------------------------|  \ x1
D|-33333333---5/7777--5555--3333333--5/7777----5-------------|  /
A|-33333333---5/7777--5555--3333333--5/7777----5-------------| /
E|-11111111---3/5555--3333--1111111--3/5555----3-------------|/
 \
  \She's a lady...

=================================================================
Lyrics:
I'm in love with a girl I hate
She enjoys pointing out every bad thing about me
I'm in love with a critic and a skeptic
A traitor, I'd trade her in a second

She's a backseat driver
A drama provider an instant update of the world
Shes a first class liar a constant forgetter
(she's attractive but bitter)

Did you scream enough to make her cry
If you turn around, turn around, baby don't return to me
If you think that I'm not worth your time
She's a lady
And ladies shouldn't be messed with
She's a lady
And ladies shouldn't be messed with

Take off your shoes
Come in the room
And baby let's try to argue
Turn out the lights
Turn on the radio
How can we fight when I'm too busy loving you
I'm too busy loving you
I'm too busy loving you

Did you scream enough to make her cry
If you turn around turn around baby don't return to me
If you think that I'm not worth your time
She's a lady
And ladies shouldn't be messed with
She's a lady
And ladies shouldn't be messed with

Here I am
There you go again, again
And we will not ever be eighteen again, again

And I'm worn out of fighting
And every night you leave crying
And I could use some time
And here I am
There you go again (again)

So here I am and dying
And I'm waiting for you, waiting for you
Come back, come back to me
And I'll take you gladly
And I'll take you in again

Did you scream enough to make her cry
If you turn around turn around baby don't return to me
If you think that I'm not worth your time

Did you scream enough to make her cry
If you turn around turn around baby don't return to me
If you think that I'm not worth your time
She's a lady
And ladies shouldn't be messed with
Shes a lady
And ladies shouldn't be messed with
Tap to rate this tab
 
# A B C D E F G H I J K L M N O P Q R S T U V W X Y Z