Song name
# A B C D E F G H I J K L M N O P Q R S T U V W X Y Z

Forever The Sickest Kids - Bundled Up tab

-------------------------------------------------------------------------------
			     Bundled Up - Forever The Sickest Kids
-------------------------------------------------------------------------------
Tabbed by:Brandon Hooven
Email:Brandon_hooven2hotmail.com

Tuning: standard  (EADGBe)

Intro:

e|--0-0-0-0-0-0-0-0-0-0-0-0-0-0---------------------------------------------|
B|-5-5-4-4-5-5-4-4-5-5-4-4-2-2----------------------------------------------|
G|--------------------------------------------------------------------------|
D|--------------------------------------------------------------------------|
A|--------------------------------------------------------------------------|
E|--------------------------------------------------------------------------|

 chords used:

e|-6---------------6------------6-----------------------------------------|
B|-6---------------6------------6-----------------------------------------|
G|-6---------------6------------8-----------------------------------------|
D|-8---------------10-----------8-----------------------------------------|
A|-8---------------8------------6-----------------------------------------|
E|-6---------------6------------6-----------------------------------------|

i prefer to just skip the intro and just put capo on 6th fret and play this


e|-0---------------0------------0-----------------------------------------|
B|-0---------------0------------0-----------------------------------------|
G|-0---------------0------------2-----------------------------------------|
D|-2---------------4------------2-----------------------------------------|
A|-2---------------2------------0-----------------------------------------|
E|-0---------------0------------0-----------------------------------------|

i dont feel like tabbing the strum pattern or else i would. so just figure it out. if 
can play guitar then you can learn stuff by ear.
Tap to rate this tab
 
# A B C D E F G H I J K L M N O P Q R S T U V W X Y Z