Song name
# A B C D E F G H I J K L M N O P Q R S T U V W X Y Z

Forever The Sickest Kids - Bundle Up tab

I couldnt find the intro anywhere so i taught myself and pretty sure its right!

Standard tuning

e|--------------------------------------------------|
b|--------------------------------------------------|
g|-----7-------7------7-------7------7------7-------|
d|-------7-------7-------7------7------7------7-----|
a|---------5-------5-------------5------5-----------|
e|------tabbed by Alex Lorenzoni--------------------|

e|----5------5------5----5-----5------5------5----------|
b|-------------------------------------------5----------|
g|------7------7------7---7------7-----7-----7----------|
a|-------7------7----------7------7----------7----------|
e|---tabbed by Alex Lorenzoni------------------5--------|
Tap to rate this tab
 
# A B C D E F G H I J K L M N O P Q R S T U V W X Y Z