Song name
# A B C D E F G H I J K L M N O P Q R S T U V W X Y Z

Forever The Sickest Kids - Woah Oh tab

E------------------------------------------------------------------------------|
B|-----------------------------------------------------------------------------|
G|----------------------7-7--------------------------7-7-----------------------|
D|-0-5-0-5-7-0-4-5-4-0--x-x-----------7-7-0-4-5-4-0--x-x-----------------------|
A|-0-5-0-5-7-0-4-5-4-0--5-5--4-5-4-0--7-7-0-4-5-4-0--5-5--4-5-4-0--------------|
d|-0-5-0-5-7-0-4-5-4-0----------------7-7-0-4-5-4-0----------------------------|

|--------------------------------------------------------------------|
|--------------------------------------------------------------------|
|--------------------------------------------------------------------|
|5-7-0-4-5-4-99999999-0-5-0-5-7-0-4-5-4-0----------------------------|
|5-7-0-4-5-4-99999999-0-5-0-5-7-0-4-5-4-0----------------------------|
|5-7-0-4-5-4-99999999-0-5-0-5-7-0-4-5-4-0----------------------------|


verse 1:
e---------------------------------------------------------------------------|
b-----7-8----7-8----7-8-7----12-10-7-8----7-8---7-8---7-8-7-----------------|
g---------7------7--------7-------------------7-----7-------7---------------|
d---------------------------------------------------------------------------|
a---------------------------------------------------------------------------|
d---------------------------------------------------------------------------|



Chorus: 

e---------------------------------------------------------------------------|
b---------------------------------------------------------------------------|
g------7777777-11-11-11-11-11-11-11---9999999-7777777-11-11-11-11-11-11-11--|
d------5555555-9--9--9--9--9--9--9----7777777-5555555-9--9--9--9--9--9--9---|
a------5555555-9--9--9--9--9--9--9----7777777-5555555-9--9--9--9--9--9--9---|
d------5555555-9--9--9--9--9--9--9----7777777-5555555-9--9--9--9--9--9--9---|

e--------------------------------------------------------------------------|
b--------------------------------------------------------------------------|
g-99x99x-------------------------------------------------------------------|
d-77x77x-------------------------------------------------------------------|
a-77x77x-------------------------------------------------------------------|
d-77x77x-------------------------------------------------------------------|

Verse 2:x2

e------------------------------------------------------------------------|
b------------------------------------------------------------------------|
g-7-6-7-6-4-6-7-9/--14-14-12-11-7-7-7-7----------------------------------|
d-x-x-x-x-x-x-x-x/--x--x--x--x--x-x-x-x----------------------------------|
a-5-4-5-4-2-4-5-7/--12-12-10-9--5-5-5-5----------------------------------|
d------------------------------------------------------------------------|

 x2 

e---------------------------------------------------------------------------|
b---------------------------------------------------------------------------|
g-77777777777777-999999999999999-1414141414141414141414-12-12-12-12-12------|
d-xxxxxxxxxxxxxx-xxxxxxxxxxxxxxx-xxxxxxxxxxxxxxxxxxxxxx-x--x--x--x--x-------|
a-55555555555555-777777777777777-1212121212121212121212-10-10-10-10-10------|
d---------------------------------------------------------------------------|

e---------------------------------------------------------------------------|
b---------------------------------------------------------------------------|
g-11-11-11-11-11-11---------------------------------------------------------|
d-x--x--x--x--x--x----------------------------------------------------------|
a-9--9--9--9--9--9----------------------------------------------------------|
d---------------------------------------------------------------------------|


Chorus

e-------------|
b-------------|
g-------------|
d-5~-----0~---|
a-5~-----0~---|
d-5~-----0~---|

play after the chorus



e---------------------------- x2 then-----------------------------------------|
b-----------------------------------------------------------------------------|
g-----------------------------------------------------------------------------|
d-5504540-----------------------------5504549999777755045400------------------|
a-5504540--000000000000000000---------5504549999777755045400------------------|
d-5504540--000000000000000000---------5504549999777755045400------------------|
p.m        ..................
Tap to rate this tab
 
# A B C D E F G H I J K L M N O P Q R S T U V W X Y Z