Song name
# A B C D E F G H I J K L M N O P Q R S T U V W X Y Z

Forever The Sickest Kids - Nikki Acoustic tab

                      This is my first try at a tab!
               Saw that there wasn't one posted on this song so..
                               here you go! :)


My video explanation:

http://www.youtube.com/watch?v=jJaIZwXdx-Q&feature=youtu.be


Intro And Verses :

Palm Muted.

e|----------------------------------------------------------------------|
B|-5-----3-----9-----2------3-------------------------------------------|
G|-6-x8--3-x4--9-x4--2-x12--3-x4----------------------------------------| x2
D|-6-----3-----9-----2------3-------------------------------------------|
A|-4-----2-----7------------2-------------------------------------------|
E|----------------------------------------------------------------------|

Pre-Chorus :

You can play each chord once, or follow the times played below. :)

e|----------------------------------------------------------------------|
B|-------------5-----3-----2-----5--------------------------------------|
G|-1-----2-----6-----3-----2-----6----[ring-out]------------------------|
D|-2-x8--2-x8--6-x4--3-x4--2-x4--6-x2-----------------------------------|
A|-2-----2-----4-----2-----------4--------------------------------------|
E|----------------------------------------------------------------------|

Chorus :

Strumming Pattern : [ \/ \/ \/ /\ \/ ]

Play last chord through twice. :)

e|----------------|
B|-2-----3--------|
G|-2--3--3--------|
D|-2--2--3--------|
A|----2--2--------|
E|----------------|

Play chorus again where solo plays, and then single chords back into normal strumming 
pattern shown above :)

Enjoy Playing! ^_^

Submitted By Dan'Dan Lamb.
Tap to rate this tab
# A B C D E F G H I J K L M N O P Q R S T U V W X Y Z