Song name
# A B C D E F G H I J K L M N O P Q R S T U V W X Y Z

Forever The Sickest Kids - Believe Me Im Lying tab

Here! Hope you like it! It's my first tab!

Updated 8/24/08

Intro:

Hey,you always seem to catch me when I'm lying...
(I'm not good at tabbing strum patterns,so here are the chords)
|-1-|            |-1-|        |-1-|
|-1-|            |-1-|        |-1-|
|-3-|            |-2-|        |-0-|
|-3-| x alot     |-2-| x alot |-2-| x alot
|---|            |---|        |---|
|---|            |---|        |---|

...About the stupidest of things

Okay stay there while I'll stab you in...

|-1-|            |-1-|        |-1-|
|-1-|            |-1-|        |-1-|
|-3-|            |-2-|        |-0-|
|-3-| x alot     |-2-| x alot |-2-| x alot
|---|            |---|        |---|
|---|            |---|        |---|

...The back with words
e|------------------------|
B|------------------------|
G|---8-8-8-8-8-8-8-8/10---|
D|---8-8-8-8-8-8-8-8/10---|
A|---6-6-6-6-6-6-6-6/8----|
E|------------------------|

I never ever should've taken this so far

Chorus:

Go ahead and buy yourself a drink,Cause you know you're deserving of it
e|----------------------------------------------------------|
B|----------------------------------------------------------|
G|-------------------------------------------8-8-8--7-7-7---|
D|-6-6-6-6-6--10-10-10--10-10-10--8-8-8-8-8--8-8-8--7-7-7---|
A|-6-6-6-6-6--10-10-10--10-10-10--8-8-8-8-8--6-6-6--5-5-5---|
E|-4-4-4-4-4--8--8--8---8--8--8---6-6-6-6-6-----------------|

Go ahead and cry yourself to sleep And think how you hate me so bad
e|------------------------------------------------------------|
B|------------------------------------------------------------|
G|------------------------------------------------------------|
D|-6-6-6-6-6--10-10-10--10-10-10--8-8-8-8-8--8-8-8-8-8-8-8-8--|
A|-6-6-6-6-6--10-10-10--10-10-10--8-8-8-8-8--8-8-8-8-8-8-8-8--|
E|-4-4-4-4-4--8--8--8---8--8--8---6-6-6-6-6--6-6-6-6-6-6-6-6--|


Go ahead and buy yourself a drink,Cause you know you're deserving of it
e|---------------------------------------------------------------------|
B|---------------------------------------------------------------------|
G|---------------------------------------------------------------------|
D|-6-6-6-6-6-6-6-6-1010101010101010-8-8-8-8-8-8-8-8-8-8-8-8-8-8-8-8----|
A|-6-6-6-6-6-6-6-6-1010101010101010-8-8-8-8-8-8-8-8-8-8-8-8-8-8-8-8----|
E|-4-4-4-4-4-4-4-4-8-8-8-8-8-8-8-8--6-6-6-6-6-6-6-6-6-6-6-6-6-6-6-6----|


Go ahead and cry yourself to sleep And think how you hate me so bad
e|----------------------------------------------------------------------|
B|----------------------------------------------------------------------|
G|----------------------------------------------------------------------|
D|-6-6-6-6-6--10-10-10--10-10-10--8-8-8-8-8--8--8--8--8--8--8--8~-------|
A|-6-6-6-6-6--10-10-10--10-10-10--8-8-8-8-8--8--8--8--8--8--8--8~-------|
E|-4-4-4-4-4--8--8--8---8--8--8---6-6-6-6-6--6--6--6--6--6--6--6~-------|
                                             .  .  .  .  .  .

Post Chorus:

DoDo Do Do Do Do...
e|-----------------------------------------------------|
B|-----------------------------------------------------|
G|---------------------------8-8--8-8--10-10--10-10----|
D|-6-6--6-6-6--6-6-6--6-6-6--x-x--x-x--x--x---x--x-----|
A|-6-6--6-6-6--6-6-6--6-6-6--6-6--6-6--8--8---8--8-----|
E|-4-4--4-4-4--4-4-4--4-4-4----------------------------|

DoDo Do Do Do Do...
e|--------------------------------------------|
B|--------------------------------------------|
G|---------------------------8-8--8-8--10-10--|
D|-6-6--6-6-6--6-6-6--6-6-6--x-x--x-x--x--x---|
A|-6-6--6-6-6--6-6-6--6-6-6--6-6--6-6--8--8---|
E|-4-4--4-4-4--4-4-4--4-4-4-------------------|

Bridge 1:

   I could write about a thousand songs to impress you But I wouldn't want to do that
e|----------------------------------------------------------------------------------|
B|----------------------------------------------------------------------------------|
G|----------------------------------------------------------------------------------|
D|-------15p13----------15p13----------15p13h15p13h15p13----------------------------|
A|--13h15----------13h15----------13h15---------------------------------------------|
E|----------------------------------------------------------------------------------|

  I could make you feel like the queen of the world but I won't Cause you're full of imperfections
e|----------------------------------------------------------------------------------|
B|----------------------------------------------------------------------------------|
G|----------------------------------------------------------------------------------|
D|-------15p13-----------15p13------------------------------------------------------|
A|--13h15-----------13h15----------13h15\\------------------------------------------|
E|----------------------------------------------------------------------------------|

Verse 2:

 And this is coming from a third perspective
 All I'm saying is you need to be selective
e|----------------------------------------------------|
B|----------------------------------------------------|
G|--------------------------8-8--8-8--10-10--10-10----|
D|-6-6-6-6-6-6-6-6-6-6-6----x-x--x-x--x--x---x--x-----|
A|-6-6-6-6-6-6-6-6-6-6-6----6-6--6-6--8--8---8--8-----|
E|-4-4-4-4-4-4-4-4-4-4-4------------------------------|

 This is coming from a gentleman with your needs in mind
 I've got his on the sideline
e|----------------------------------------------------------------|
B|----------------------------------------------------------------|
G|----------------------------------------------------------------|
D|-6-6-6-6-6-6-6-6-1010101010101010-2-2-2-2-2-2-2-2---8~---8/6~---|
A|-6-6-6-6-6-6-6-6-1010101010101010-2-2-2-2-2-2-2-2-xx8~-xx8/6~---|
E|-4-4-4-4-4-4-4-4-8-8-8-8-8-8-8-8--0-0-0-0-0-0-0-0-xx6~-xx6/4~---|
                   . . . . . . . .  . . . . . . . .
Bridge 2:

 Whoa oh whoa oh
e|---------------|
B|---------------|
G|-8~--10~-------| x 3
D|-8~--10~--6~---| last time through hit last chord twice
A|-6~--8~---6~---|
E|----------4~---|

Chorus 2:

Go ahead and buy yourself a drink,Cause you know you're deserving of it
e|----------------------------------------------------------|
B|----------------------------------------------------------|
G|-------------------------------------------8-8-8--7-7-7---|
D|-6-6-6-6-6--10-10-10--10-10-10--8-8-8-8-8--8-8-8--7-7-7---|
A|-6-6-6-6-6--10-10-10--10-10-10--8-8-8-8-8--6-6-6--5-5-5---|
E|-4-4-4-4-4--8--8--8---8--8--8---6-6-6-6-6-----------------|

Go ahead and cry yourself to sleep And think how you hate me so bad
e|------------------------------------------------------------|
B|------------------------------------------------------------|
G|------------------------------------------------------------|
D|-6-6-6-6-6--10-10-10--10-10-10--8-8-8-8-8--8-8-8-8-8-8-8-8--|
A|-6-6-6-6-6--10-10-10--10-10-10--8-8-8-8-8--8-8-8-8-8-8-8-8--|
E|-4-4-4-4-4--8--8--8---8--8--8---6-6-6-6-6--6-6-6-6-6-6-6-6--|

Go ahead and buy yourself a drink,Cause you know you're deserving of it
e|---------------------------------------------------------------------|
B|---------------------------------------------------------------------|
G|---------------------------------------------------------------------|
D|-6-6-6-6-6-6-6-6-1010101010101010-8-8-8-8-8-8-8-8-8-8-8-8-8-8-8-8----|
A|-6-6-6-6-6-6-6-6-1010101010101010-8-8-8-8-8-8-8-8-8-8-8-8-8-8-8-8----|
E|-4-4-4-4-4-4-4-4-8-8-8-8-8-8-8-8--6-6-6-6-6-6-6-6-6-6-6-6-6-6-6-6----|

Go ahead and cry yourself to sleep And think how you hate me so bad
e|---------------------------------------------------------------------|
B|---------------------------------------------------------------------|
G|---------------------------------------------------------------------|
D|-6-6-6-6-6--10-10-10--10-10-10--8-8-8-8-8--8--8--8--8--8--8--8-------|
A|-6-6-6-6-6--10-10-10--10-10-10--8-8-8-8-8--8--8--8--8--8--8--8-------|
E|-4-4-4-4-4--8--8--8---8--8--8---6-6-6-6-6--6--6--6--6--6--6--6-------|
                                             .  .  .  .  .  .  .
Post Chorus 2:

Dodo do do do do do do
e|--------------------------------------|
B|--------------------------------------|
G|------8-8-8/1010-----8-8-101010-------|
D|-6-6--x-x-x/x-x-6-6--8-8-101010-------|
A|-6-6--6-6-6/8-8-6-6--6-6-8-8-8--------|
E|-4-4------------4-4-------------------|

Solo:

Rhythm-
E|--------------------------------------------------------| 
B|--------------------------------------------------------| 
G|-----------------------------------------5-5-5--8-8-8---|
D|-6-6-6-6-6-6-6-6-6-6-6--8-8-8-8-8-8-8-8--x-x-x--x-x-x---|
A|-6-6-6-6-6-6-6-6-6-6-6--8-8-8-8-8-8-8-8--3-3-3--6-6-6---| 
E|-4-4-4-4-4-4-4-4-4-4-4--6-6-6-6-6-6-6-6-----------------| 

Lead:
E |----------------6-------------|
B |------------------8-6686------| 
G |----------5-7-8---------------|
D |------6-8---------------------| 
A |--6-8-------------------------| 
E |------------------------------|


E |-----------------------------------------|
B |-----------------------------------------|
G |-------------5-7-8-5---------------------|
D |---------6-8---------6-8-6-66-8-6--------| 
A |-----6-8-------------------------(6)-----|  <--(2nd ending) 
E |------------------------------------(6)--|

Quiet Chorus:
e|-------20--|                  e|-20--20---|
B|-15-15-----|                  B|---15--15~|
G|-----------| x 6 or 7,end on: G|----------|
D|-----------|                  D|----------|
A|-----------|                  A|----------|
E|-----------|                  E|----------|

Chorus/Outro:

Go ahead and buy yourself a drink,Cause you know you're deserving of it
e|---------------------------------------------------------------------|
B|---------------------------------------------------------------------|
G|---------------------------------------------------------------------|
D|-6-6-6-6-6-6-6-6-1010101010101010-8-8-8-8-8-8-8-8-8-8-8-8-8-8-8-8----|
A|-6-6-6-6-6-6-6-6-1010101010101010-8-8-8-8-8-8-8-8-8-8-8-8-8-8-8-8----|
E|-4-4-4-4-4-4-4-4-8-8-8-8-8-8-8-8--6-6-6-6-6-6-6-6-6-6-6-6-6-6-6-6----|

Go ahead and cry yourself to sleep And think how you hate me so bad
e|---------------------------------------------------------------------|
B|---------------------------------------------------------------------|
G|---------------------------------------------------------------------|
D|-6-6-6-6-6-6-6-6-1010101010101010-8-8-8-8-8-8-8-8-8-8-8-8-8-8-8-8----|
A|-6-6-6-6-6-6-6-6-1010101010101010-8-8-8-8-8-8-8-8-8-8-8-8-8-8-8-8----|
E|-4-4-4-4-4-4-4-4-8-8-8-8-8-8-8-8--6-6-6-6-6-6-6-6-6-6-6-6-6-6-6-6----|


Go ahead and buy yourself a drink,Cause you know you're deserving of it
e|---------------------------------------------------------------------|
B|---------------------------------------------------------------------|
G|---------------------------------------------------------------------|
D|-6-6-6-6-6-6-6-6-1010101010101010-8-8-8-8-8-8-8-8-8-8-8-8-8-8-8-8----|
A|-6-6-6-6-6-6-6-6-1010101010101010-8-8-8-8-8-8-8-8-8-8-8-8-8-8-8-8----|
E|-4-4-4-4-4-4-4-4-8-8-8-8-8-8-8-8--6-6-6-6-6-6-6-6-6-6-6-6-6-6-6-6----|


Go ahead and cry yourself to sleep And think how you hate me so bad
e|-------------------------------------------------------------------|
B|-------------------------------------------------------------------|
G|-------------------------------------------------------------------|
D|-6-6-6-6-6-6-6-6-1010101010101010-8-8-8-8-8-8-8-8-8-8-8-8-8-8-8-8~-|
A|-6-6-6-6-6-6-6-6-1010101010101010-8-8-8-8-8-8-8-8-8-8-8-8-8-8-8-8~-|
E|-4-4-4-4-4-4-4-4-8-8-8-8-8-8-8-8--6-6-6-6-6-6-6-6-6-6-6-6-6-6-6-6~-|
                                                        . . . . . 
Tap to rate this tab
 
# A B C D E F G H I J K L M N O P Q R S T U V W X Y Z