Guitaretab - guitar tabs
Song name
# A B C D E F G H I J K L M N O P Q R S T U V W X Y Z

Foreverdown - Rap Medley tab

Author/Artist: foreverDOWN
Title: Rap Medley
Album: http://www.purevolume.com/foreverdown/
Transcribed by: wEiRdDeHi
Email: dehi@optonline.net
Tuning: Standard

foreverDOWN=neverUP

PLAY THROUGHT
-|----------------------------------------------------------------------------|
-|----------------------------------------------------------------------------|
-|-7-------4------------------------------------------------------------------|
-|-7---7---4---5--------------------------------------------------------------|
-|-5---7---2---5--------------------------------------------------------------|
-|-----5-------3--------------------------------------------------------------|

[ Tab from: http://www.guitaretab.com/f/foreverdown/54005.html ]
		OR you can play like this:

-|----------------------------------------------------------------------------|
-|----------------------------------------------------------------------------|
-|-7--------------------------------------------------------------------------|
-|-7---7---9---5--------------------------------------------------------------|
-|-5---7---9---5--------------------------------------------------------------|
-|-----5---7---3--------------------------------------------------------------|

		(substitue the X244 for 799)

-----------------------------------------------
wEirdDehi-
My Mission: To transcribe songs you never heard of.

(But then why did you come here if you didn't hear the song?)
Related for Rap Medley tab
Advertisement will be closed in 10 seconds