Song name
# A B C D E F G H I J K L M N O P Q R S T U V W X Y Z

Forfun - Olhando O Mar chords

Highlighted       Show chord diagrams
F#5                           B5              C#5
Se lembra daquele dia que a chuva caia e a gente ali
F#5                            B5       C#5
Deitado  na barraca ouvindo Blink e NFG
(começA A batida)
F#5                            B5             C#5
Você me disse coisas que eu nunca mais esqueci
F#5                  B5      C#5
O teu sorriso me fazia sorrir

D#5                Bb5            C5
Enquanto você me olhava eu imaginava
               G#5
O teu corpo colado no meu
D#5              Bb5                    C5                  G#5
E a gente se beijava e a vontade aumentava até que aconteceu

F#5     C#5      G#5       B5        F#5
Momentos imaginados tempos atrás
     C#5        G#5       B5
E a lua me fazia viajar
F#5     C#5    G#5              B5            F#5
A música tocando e seu perfume com o meu
      C#5         G#5     B5
Misturados no ar

(F#5 - C#5 - G#5 - B5) 2x


(uma batida deixando soar)
F#5                       B5        C#5
No dia seguinte tu me olhava da areia
F#5                      B5    C#5
 E mais perfeito não podia ser
(batida)
F#5                        B5     C#5
Um metro rolando abrindo pra direita
F#5                  B5   C#5
E eu olhando pra você

D#5               Bb5             C5
Era a coisa mais linda vista de lá
                     G#5                        D#5
Você molhava só os pés com medo do mar
                   Bb5            C5    G#5
E eu vinha até a beira pra te pegar
D#5         Bb5                   C5
  E fotografias a gente tirou
                       G#5                      D#5
De momentos que eu não vou mais esquecer
                    Bb5                       C5         G#5
A gente a tarde inteira, olhando a tarde inteira passar

(só vocalização)
Até o anoitecer,
(batida meia abafada)
(D#5 Bb5 C5 G#5)
até o anoitecer
Até o anoitecer, até o anoitecer
Até o anoitecer, até o anoitecer
Até o anoitecer, até o anoitecer


Violão 1 (base) - (D#5 Bb5 C5 G#5)
Violão 2 (solo): REPETE 2x


  D#5                       A#5                       C5
E|---------------------------------------------------------------------------------------------||
B|---------------------------------------------------------------------------------------------||
G|--------------------------------------------------------------------------8-8-8-8-8----------||
D|--8-8-8-8-8-8-8-----------3-3-3-3-3-3-3--3-1-0-----5-5-5-5-5-5-5----------6-6-6-6-6-5-3-1-0--||
A|--6-6-6-6-6-6-6--8-6-5-3--1-1-1-1-1-1-1--------1---3-3-3-3-3-3-3--3-5-6-3--------------------||
E|---------------------------------------------------------------------------------------------||




 D#5                       A#5                       C5
E|---------------------------------------------------------------------------------------------||
B|---------------------------------------------------------------------------------------------||
G|--------------------------------------------------------------------------8------------------||
D|--8-8-8-8-8-8-8-----------3-3-3-3-3-3-3--3-1-0-----5-5-5-5-5-5-5----------6-6-6-6-6-5-3-1-0--||
A|--6-6-6-6-6-6-6--8-6-5-3--1-1-1-1-1-1-1--------1---3-3-3-3-3-3-3--3-5-6-3--------------------||
E|---------------------------------------------------------------------------------------------||



F#5     C#5      G#5       B5        F#5
Momentos imaginados tempos atrás
     C#5        G#5       B5
E a lua me fazia viajar
F#5     C#5      G#5       B5            F#5
A música tocando e seu perfume com o meu
      C#5         G#5     B5
Misturados no ar

F#5     C#5      G#5       B5          F#5
Momentos imaginados tempos atrás
     C#5        G#5       B5
E a lua me fazia viajar
F#5     C#5      G#5       B5
A gente ouvindo "Uma noite no cais"
F#5 C#5  G#5       B5
Abraçados,       olhando o mar
(F#5     C#5      G#5       B5  )
Olhando o mar, olhando o mar
Olhando o mar, olhando o mar
Olhando o mar, olhando o mar
F#5
Tap to rate this tab
# A B C D E F G H I J K L M N O P Q R S T U V W X Y Z