Song name
# A B C D E F G H I J K L M N O P Q R S T U V W X Y Z

Forget Cassettes - A Legacys Demise tab

Great band, great song. Enjoy it! =)

--> First part:

"I know evil's name. I've seen it's face. It doesnt look like you. 
Trapped in your own mind. Hiding from them. Hiding from harm."

|-------------------------------------------------------------------------------------------|
|-------------------------------------------------------------------------------------------|
|-------------------------------------------------------------------------------------------|
|----11------11---------------------11------11----------------------11------11--------------|
|-------9---------9-11-12-11-9---------9---------9-11-12-11-12---------9---------9-11-12-11-|
|-10------12----9--------------9-10------12----9---------------9-10------12----9------------|

|--------------------------|
|--------------------------|
|--------------------------|
|--------11------11--------|
|-9---------9---------9----|
|---9-10------12----9------|

--> Second Part:

"One by one by one the choice was made."

|---------------------------------------------------------------------------------------|
|---------------------------------------------------------------------------------------|
|---------------------------------------------------------------------------------------|
|-------------------------------------------------------------------7-----9-----7-----9-|
|-----------------------------------------------------------------9-----9-----9-----9---|
|-10-10-10-10-10-10-10-10-10-10-10-10-9-9-9-9-9-9-9-12-12-12-12-9-----9-----9-----9-----|

|--------------------------------|
|--------------------------------|
|--------------------------------|
|-11---7-----9-----7-----9-11----|
|----9-----9-----9-----9---------|
|--------9-----9-----9-----------|

"Motherhood decides a woman's fate?"
// Repeat Second Part

--> Third Part:

"Do you despise her?" 

|---------|
|---------|
|---------|
|--0-9----|
|--9-9----|
|-10-7----|

"Will you avenge her?"

|---------|
|---------|
|---------|
|-12-9----|
|--9-9----|
|-10-7----|

"To teach a lesson | from this disaster."

|---------|------------------------------------------------------|
|---------|------------------------------------------------------|
|---------|------------------------------------------------------|
|-------4-|----------------------------------------11------11----| Return to First Part... 
|--9-11-4-|--9-12-12-12-12-12--9-12-12-12-12--9-------9----------|
|-10-12-2-|-10-10-10-10-10-10-10-10-10-10-10-10-10------12-------|

"Shamed and neglected by the ones who should protect you.
You have served your time. So I won't place blame for someone else's mistake."
// Repeat First Part

"One by one by one she'll count the days.
But the memory will never fade."
// Repeat Second Part

"Do you despise her? Will you avenge her?
To teach a lesson from this disaster."
// Repeat Third Part (with the First Part before)

--> Fourth Part:

"Give her the strength to carry on."

|-------------------------------------------|
|-------------------------------------------|
|-------------------------------------------|
|------------------------------------4-4----|
|--9---11----9---11----9---11----9---4-4----|
|-10---12---10---12---10---12---10---2-5----|

Keep going with fourth part and the last part is the First Part again!

Tap to rate this tab
# A B C D E F G H I J K L M N O P Q R S T U V W X Y Z