Song name
# A B C D E F G H I J K L M N O P Q R S T U V W X Y Z

Forgive Durden - Il Tango Della Signora Francesco Di Bartolommeo Di Zanobi Del Giocono tab

Il Tango Della Signora Francesco di Bartolommeo di Zanobi del Giocono - Forgive Durden

I know this tab isn't exactly right, but I think that for a quick play, this will do. 
corrections, please post in the comments and I'll try and fix it up. Enjoy =]

Intro:

e|---------------------------------------------------------------------------|
B|---------------------------------------------------------------------------|
G|-9--11--9--7--6---------------11-10-11-16--15------------------------------|
D|-9--11--9--7--6------------------------------------------------------------|
A|-7--9---7--5--4----9--9-8-9---9--8--9--14--13------------------------------|
E|-------------------7--7-6-7------------------------------------------------|

e|---------------------------------------------------------------------------|
B|---------------------------------------------------------------------------|
G|----------------------------------11-10-11-16--15-------------9--11-9-7-6--|
D|------------5--7--4-------------------------------------------9--11-9-7-6--|
A|-9--9-8-9---5--7--4----9--9-8-9---9--8--9--14--13---9--9-8-9--7--9--7-5-4--|
E|-7--7-6-7---3--5--2----7--7-6-7---------------------7--7-6-7---------------|
   x  x x x   x  x  x    x  x x x                     x  x x x

Verse:

e|---------------------------------------------------------------------------|
B|---------------------------------------------------------------------------|
G|-------------------------11---11-9-7-6-7-6-4-------------------------------|
D|-9--9----9--9----8--8----11----------------------9--9----9--9----8--8------|
A|-9--9----9--9----8--8----9----9--7-5-4-5-4-2-----9--9----9--9----8--8------|
E|-7--7----7--7----6--6----------------------------7--7----7--7----6--6------|
   x  x    x  x    x  x         x  x x x x x x     x  x    x  x    x  x
e|---------------------------------------------------------------------------|
B|---------------------------------------------------------------------------|
G|-11------------------------------------------------------------------------|
D|-11------------------------------------------------------------------------|
A|-9-------------------------------------------------------------------------|
E|---------------------------------------------------------------------------|

Chorus:

Work out the strumming for yourself

e|---------------------------------------------------------------------------|
B|---------------------------------------------------------------------------|
G|---------------------------------------------------------------------------|
D|-9--11-12--9--7--5----9--11-12--9--7--5---4-4------------------------------|
A|-9--11-12--9--7--5----9--11-12--9--7--5---4-4------------------------------|
E|-7--9--10--7--5--3----7--9--10--7--5--3---2-2------------------------------|

Repeat intro

Verse 2:

work out strumming for yourself

e|---------------------------------------------------------------------------|
B|---------------------------------------------------------------------------|
G|-7-7-7-7-7-7-7-7-9-9-9-9----------------------------------7-11-------------|
D|--------------------------11-11-11-11-11-11-8-8-8-8-9-9-9------9-9-9-9-9---|
A|-5-5-5-5-5-5-5-5-7-7-7-7----------------------------------5-9--------------|
E|--------------------------9--9--9--9--9--9--6-6-6-6-7-7-7------7-7-7-7-7---|

e|---------------------------------------------------------------------------|
B|---------------------------------------------------------------------------|
G|----9-9-9-9-9-9-9--7-6-----------------------------------------------------|
D|-11------------------------------------------------------------------------|
A|----7-7-7-7-7-7-7--5-4-----------------------------------------------------|
E|-9-------------------------------------------------------------------------|

Repeat Chorus and play for bridge as well until:

"I can really do anything" work out strumming
e|---------------------------------------------------------------------------|
B|---------------------------------------------------------------------------|
G|---------------------------------------------------------------------------|
D|--5--7---------------------------------------------------------------------|
A|--5--7---------------------------------------------------------------------|
E|--3--5---------------------------------------------------------------------|

Rest of the bridge

e|---------------------------------------------------------------------------|
B|---------------------------------------------------------------------------|
G|-11-12h14p12-----------11-12h1412------------------------------------------|
D|------------12-12-11-------------12-12-12h14p11----------------------------|
A|---------------------------------------------------------------------------|
E|---------------------------------------------------------------------------|
Repeat until END.


| /  slide up
| \  slide down
| h  hammer-on
| p  pull-off
| ~  vibrato
| +  harmonic
| x  Mute note
Tap to rate this tab
# A B C D E F G H I J K L M N O P Q R S T U V W X Y Z