Song name
# A B C D E F G H I J K L M N O P Q R S T U V W X Y Z

Forgive Durden - Il Tango Della Signora Francesco Di Bartolommeo Di Zanobi Del Giocono tab

Il Tango Della Signora Francesco Di Bartolommeo Di Zanobi Del Giocondo
(the song when they were all banging the drums at the end)

[0:40-0:48]
e]------------------------------------------------------[
B]------------------------------------------------------[
G]------------------------------------------------------[
D]---------------2/4/2/0-------------------2/4----------[
A]--2--2/5/2--2/5-------4/2----2--2/5/2-2/5-------------[
E]------------------------------------------------------[


[1:20-1:35]
e]--------------------------------------------------------------------------------------[
B]--------------------------------------------------------------------------------------[
G]-------------------------------------------2/4----------------------------------------[
D]---------------2/4/2/0------------------2/4----------------2/4/2/0-----------------2/4[
A]--2--2/5/2--2/5-------4/2---2--2/4/1-1/4------02--2/5/2-2/5-------4/2--2--2/4/1--1/4--[
E]--------------------------------------------------------------------------------------[

Saw someone added a tab, so thought I add what I knew of it too.
GO FD!
Tap to rate this tab
# A B C D E F G H I J K L M N O P Q R S T U V W X Y Z