Song name
# A B C D E F G H I J K L M N O P Q R S T U V W X Y Z

Forgive Durden - Beware The Jub Jub Bird And Shun The Frumious Bandersnatch tab

FORGIVE DURDEN - Beware the Jubjub Bird and Shun the Frumious Bandersnatch

i got tired of tabs i saw. so id decided to play it the way it sounds
i didnt finish the end cause its boring anyways but here it is
if you want you can email me at alexscrap@gmail.com enjoy


e|--------------------------------------------------|
b|--------------------------------------------------|
g|-------------5-5----------------8--8--6-6-5-5-3-3-|
d|-3-3---------5-5-----------5-5--10-10-8-8-6-6-5-5-|
a|-3-3---------3-3-4-3-------5-5--------------------|
E|-1-1-1-3-4/6---------6-4-3-3-3--------------------|

e|--------------------------------------------------|
b|--------------------------------------------------|
g|-------------5-5----------------8--8--6-6-5-5-3-3-|
d|-3-3---------5-5-----------5-5--10-10-8-8-6-6-5-5-|
a|-3-3---------3-3-4-3-------5-5--------------------|
E|-1-1-1-3-4/6---------6-4-3-3----.--.--.-.-.-.-.-.-|
                                     palm mute

e|-------------------------------------------|
b|--------------------------------------13\--|
g|-------------5----------6-----**13-12-10\--|
d|-3-3---------5----------6-----**11-10------|
a|-3-3---------3----------4------------------|
e|-1-1---------------------------------------|

She exits her gold chariot
One pump at a time.
Cloaked in her matching pin-striped
Arsenal of next month's nows.
She grazes through the dark,

 |1e|----------------------------------------|
|b|------------------------------------------|
|g|--11----------------12----------------11--|
|d|--11----------------12----------------11--|
|a|--9-----------------10----------------9---|
|e|------------------------------------------|
|                                                                                 |
|                                                    this is off slightly  |
|2e|------------------------------------------------------------------------------9/13--|
|b|----------------------------------------------------------------------------9--------|
|g|-----------------------------10h13p10-11---------------------------9--10-12----------|
|d|-------------------------------------(11)--------------7---9-10-12-------------------|
|a|-------------------------------------(9)--------7-9-10-------------------------------|
|e|-------------------------------------------------------------------------------------|
concret planes....

chorus
e|--------------------------------------------------|
b|--------------------------------------------------|
g|-------------5-5----------------8--8--6-6-5-5-3-3-|
d|-3-3---------5-5-----------5-5--10-10-8-8-6-6-5-5-|
a|-3-3---------3-3-4-3-------5-5--------------------|
E|-1-1-1-3-4/6---------6-4-3-3-3--------------------|

e|--------------------------------------------------|
b|--------------------------------------------------|
g|-------------5-5----------------8--8--6-6-5-5-3-3-|
d|-3-3---------5-5-----------5-5--10-10-8-8-6-6-5-5-|
a|-3-3---------3-3-4-3-------5-5--------------------|
E|-1-1-1-3-4/6---------6-4-3-3-3--------------------|

e|--------------------------------------------------|
b|--------------------------------------------------|
g|-------------5-5----------------8--8--6-6-5-5-3-3-|
d|-3-3---------5-5-----------5-5--10-10-8-8-6-6-5-5-|
a|-3-3---------3-3-4-3-------5-5--------------------|
E|-1-1-1-3-4/6---------6-4-3-3-3--------------------|

e|-------------------------------------------------|
b|-------------------------------------------------|
g|-------------5-5---------------------------------|
d|-3-3---------5-5------------5~-------------------|
a|-3-3---------3-3-4-3--------5~-------------------|
E|-1-1-1-3-4/6---------6-4-3--3~-------------------|

               A taste of life with you...


e|------------------------------------------------------------------------|
b|------------------------------------------------------------------------|
g|------------------------------------------------------------------------|
d|-8-8----8-8----8-8----8-8--10-10-9-9----3-3--3-3--3-3--1-2-2-4-4-3-3----|
a|-8-8----8-8----8-8----8-8--10-10-9-9----3-3--3-3--3-3--1-2-2-4-4-3-3----|
e|-6-6----6-6----6-6----6-6--9--9--8-8----1-1--1-1--1-1--3-0-0-2-2-1-1----|

|e|------------------------------------------------------------------------|
|b|------------------------------------------------------------------------|
|g|------------------------------------------------------------------------|
|d|-8-8----8-8----8-8----8-8--10-10-9-9----3-3--3-3--3-3-------------------|
|a|-8-8----8-8----8-8----8-8--10-10-9-9----3-3--3-3--3-3----***3---3-------|
|e|-6-6----6-6----6-6----6-6--9--9--8-8----1-1--1-1--1-1----***1---1-------|
|                                                                          |
|e|------------------------------------------------------------------------|
|b|----------------------------------------------------------------13\-----|
|g|---------------------------------------------------------***13--13\-----|
|d|---------------------------------------------------------***11--11\-----|
|a|------------------------------------------------------------------------|
|e|------------------------------------------------------------------------|


   palm mute...........................................................
e|--------------------------------------------------------------------------------|
b|--------------------------------------------------------------------------------|
g|--------------------------------------------------------------------------------|
d|-8-8----8-8----8-8----8-8--10-10-9-9----3-3--3-3--3-3--1-2-2-4-4-3-3------------|
a|-8-8----8-8----8-8----8-8--10-10-9-9----3-3--3-3--3-3--1-2-2-4-4-3-3--repeat-x3-|
e|-6-6----6-6----6-6----6-6--9--9--8-8----1-1--1-1--1-1--3-0-0-2-2-1-1------------|


   |1e|--------------------------------------------------------------|
   | b|--------------------------------------------------------------|
   | g|--11-~---------------12-~----------------------------11~------|
   | d|--11-~---------------12-~----------------------------11~------|
   | a|--9-~----------------10-~----------------------------9-~------|
   | e|--------------------------------------------------------------|
   |     bite..
   |
   |2e|--------------------------------------------------------------|
   | b|--------------------------------------------------------------|
   | g|--6~------------8/10-8~-------------------10h13p10-11~--------|
   | d|--------------------------------------------------(11)~-------|
   | a|--------------------------------------------------(9)~--------|
   | e|--------------------------------------------------------------|

   |1e|--------------------------------------------------------------|
   | b|--------------------------------------------------------------|
   | g|--11~----------------12~-----------------------------11~------|
   | d|--11~----------------12~-----------------------------11~------|
   | a|--9-~----------------10~-----------------------------9~-------|
   | e|--------------------------------------------------------------|
   |
   |
   |2e|---------------------------------------------------------------|
   | b|---------------------------------------------------------------|
   | g|------------------11/13-------10h13p10--11p10\8-8h10/11--------|
   | d|----------------------------------------------------(11)-------|
   | a|----------------------------------------------------(9)--------|
   | e|---------------------------------------------------------------|


|e|----------------------------------------9/13------------------------------------|
|b|--------------------------------------9-----------10---11---12------------------|
|g|-----------------------------9-10-12--------------13^--14^--15^-----------------|
|d|-----------------7--9-10-12-----------------------------------------------------|
|a|----------7-9-10----------------------------------------------------------------|
|e|--------------------------------------------------------------------------------|
            My palate has been cleansed              i    want to....


chorus
e|--------------------------------------------------|
b|--------------------------------------------------|
g|-------------5-5----------------8--8--6-6-5-5-3-3-|
d|-3-3---------5-5-----------5-5--10-10-8-8-6-6-5-5-|
a|-3-3---------3-3-4-3-------5-5--------------------|
E|-1-1-1-3-4/6---------6-4-3-3-3--------------------|

e|--------------------------------------------------|
b|--------------------------------------------------|
g|-------------5-5----------------8--8--6-6-5-5-3-3-|
d|-3-3---------5-5-----------5-5--10-10-8-8-6-6-5-5-|
a|-3-3---------3-3-4-3-------5-5--------------------|
E|-1-1-1-3-4/6---------6-4-3-3-3--------------------|

e|--------------------------------------------------|
b|--------------------------------------------------|
g|-------------5-5----------------8--8--6-6-5-5-3-3-|
d|-3-3---------5-5-----------5-5--10-10-8-8-6-6-5-5-|
a|-3-3---------3-3-4-3-------5-5--------------------|
E|-1-1-1-3-4/6---------6-4-3-3-3--------------------|

e|-----------------------------------------------------------------------------|
b|-----------------------------------------------------------------------------|
g|-------------5-5------------------------5-5----------------8--8--6-6-5-5-3-3-|
d|-3-3---------5-5------------3-3---------5-5-----------5-5--10-10-8-8-6-6-5-5-|
a|-3-3---------3-3-4-3--------3-3---------3-3-4-3-------5-5--------------------|
E|-1-1-1-3-4/6---------6-4-3--1-1-1-3-4/6---------6-4-3-3-3--------------------|

e|--------------------------------------------------|
b|--------------------------------------------------|
g|-------------5-5----------------8--8--6-6-5-5-3-3-|
d|-3-3---------5-5-----------5-5--10-10-8-8-6-6-5-5-|
a|-3-3---------3-3-4-3-------5-5--------------------|
E|-1-1-1-3-4/6---------6-4-3-3-3--------------------|

e|--------------------------------------------------|
b|--------------------------------------------------|
g|-------------5-5----------------8--8--6-6-5-5-3-3-|
d|-3-3---------5-5-----------5-5--10-10-8-8-6-6-5-5-|
a|-3-3---------3-3-4-3-------5-5--------------------|
E|-1-1-1-3-4/6---------6-4-3-3-3--------------------|

e|-------------------------------------------------|
b|-------------------------------------------------|
g|-------------5-5---------------------------------|
d|-3-3---------5-5------------5~-------------------|
a|-3-3---------3-3-4-3--------5~-------------------|
E|-1-1-1-3-4/6---------6-4-3--3~-------------------|


r|------------------------------------|
b|------------------------------------|
g|------------------------------------|
d|-10---------8---------6---------6---|
a|-10---------8---------6---------6---|
E|-8----------6---------6---------4---|
Tap to rate this tab
# A B C D E F G H I J K L M N O P Q R S T U V W X Y Z