Song name
# A B C D E F G H I J K L M N O P Q R S T U V W X Y Z

Forgive Durden - Ear To Ear tab

Band: Whitechapel
Song: Ear to Ear
Album: The Somatic Defilement
Tuning: 7 string AEADGBE low to high

I don't have the harmonized lead part before the first breakdown
or the harmonized part behind the last breakdown, I just have one guitar tabbed out of 
I have the order of the riffs listed at the bottom, I'm pretty sure it's about 85-95% 
I couldn't find any good videos
and it's hard to pick up on one guitar sometimes but here it is, enjoy.


riff 1
|--------------------------------------|
|--------------------------------------|
|--------------------------------------|
|--------------------------------------|
|--------------------------------------|
|-000-666666555555-------------000-4-1-|
|-000--------------1h4p1-2h5p2-000-4-1-|
  ...                          ...

riff 2
|----------------------------------------|
|----------------------------------------|
|----------------------------------------|
|----------------------------------------|
|----------------------------------------|
|-000-666666555555-------------000-5-4-1-|
|-000--------------1h4p1-2h5p2-000-5-4-1-|
  ...                          ...   . .

riff 3
|-------------------|
|-------------------|
|-------------------|
|-------------------|
|---------------7---|
|-5-4-0-1-0-5h6---5-|
|-5-4-0-1-0---------|
  . . . . .

riff 4
|------------------------------|
|------------------------------|
|------------------------------|
|------------------------------|
|------------------------------|
|-4-2-1-0-1-2-1-0-(x3)-1-----1-|
|-4-2-1-0-1-2-1-0--------4-2---|
  . . . . . . . .        . .

riff 5
|---------|
|---------|
|---------|
|---------|
|---------|
|-5-4-2-1-|
|-5-4-2-1-|
  . . . .

riff 7
|-------------|
|-------------|
|-------------|
|-------------| stop the last two notes really fast (stoccato)
|-------------|
|-5-4-2-0-1-1-|
|-5-4-2-0-1-1-|
  . . . .

riff 8
|---------------------------|
|---------------------------|
|---------------------------|
|---------------------------| stoccato all 1's that aren't palm muted
|---------------------------|
|-0-1-2-4-1--2-4-1--2-4-1-1-|
|-0-1-2-4-1--2-4-1--2-4-1-1-|
  . . . .    . .    . .

riff 9
|-----|
|-----|
|-----|
|-----| stoccato on both
|-----|
|-1-1-|
|-1-1-|


riff 10
|--------------------------|
|--------------------------|
|--------------------------|
|--------------------------| not sure on # of times but it's trem picked
|--------------------------|
|--------------------------|
|-000000222444111111111111-|

riff 11
|----------|
|----------|
|----------|
|----------|
|----------|
|-0-2-4-1~-|
|-0-2-4-1~-|
    . .

riff 12
|----|
|----|
|----|
|----|
|----|
|-0~-|
|-1~-|
  .

riff 13
|---------------------|
|---------------------|
|---------------------|
|---------------------|
|---------------------|
|-00-00000-0-00-00000-|
|-11-11111-1-11-11111-|
  .. ..... . .. .....

riff 14
|---------------|
|---------------|
|---------------|
|---------------|
|---------------|
|-5-4-0-4-2-1-0-|
|-5-4-0-4-2-1-0-|
      . . . . .

riff 15
|---------------------------------------------------------|
|---------------------------------------------------------|
|---------------------------------------------------------|
|---------------------------------------------------------|
|---------------------------------------------------------|
|-5--4--5--4--5--4--5--4---8---10--8--7---5---8---7---7---|
|--00-00-00-00-00-00-00-00-8-88--88-88-88-5-55-55-7-77-77-|
   .. .. .. .. .. .. .. ..   ..  .. .. ..   .. ..   .. ..

riff 16
|--------------------------|
|--------------------------|
|--------------------------|
|--------------------------|
|--------------------------|
|--------------------------|
|-0000000-0-0000-0-0-00000-|


order
riff 1 x1
riff 2 x1
riff 1 x1
riff 2 x1
riff 3 x1
riff 4 x2
riff 5 x1
riff 4 x2
riff 7 x1
riff 8 x2
riff 9 x1
riff 10 x2
riff 11 x8 (harmonized lead behind last 4x of this riff)
riff 12 x1
riff 13 x4 (1st breakdown)
riff 14 x1
riff 15 x4
riff 16 x2
riff 16 x2 (palm muted pre breakdown)
riff 16 x4 (palm muted breakdown)
riff 16 x4 (same with harmonized part behind it)
riff 16 x1 (after breakdown)

there it is, if anyone can add to it or improve it please help
Tap to rate this tab
 
# A B C D E F G H I J K L M N O P Q R S T U V W X Y Z