Song name
# A B C D E F G H I J K L M N O P Q R S T U V W X Y Z

Forgive Durden - A Dead Person Breathed On Me tab

-------------------------------------------------------------------------------
			     A DEAD PERSON BREATHED ON ME! - Forgive Durden
-------------------------------------------------------------------------------
Tabbed by: Sean Law
Email:

Tuning: Half-step down. I'm not sure if that's what they use,
but it's what my guitar was tuned to when i tabbed this.

I've got shovels for my hands, anchors for my legs
e|---------------------------------------------------------------------|
B|---------------------------------------------------------------------|
G|-14--12----------------------14--12----------------------------------|
D|---------15--14--12--10-------------15--14--12-----------------------|
A|-------------------------12------------------------------------------|
E|---------------------------------------------------------------------|

Wings jut out my shoulder blades, I can go anywhere
e|---------------------------------------------------------------------|
B|---------------------------------------------------------------------|
G|-14--12-------------------------14--12-------------------------------|
D|---------15--14--12--10-----------------15-14-12---------------------|
A|-------------------------12------------------------------------------|
E|---------------------------------------------------------------------|

I'm having some trouble with the chords, but I'll get them up soon.


End Bit:

Add another notch, in your painted town I'll rot
e|--------------------------------------------------------------------------|
B|--------------------------------------------------------------------------|
G|---------7-----------------------7----------------------------------------|
D|-10-7-10---7-------------10-7-10---7--------------------------------------|
A|--------------------------------------------------------------------------|
E|--------------------------------------------------------------------------|

As another nameless block, what's learned won't quickly be forgot
e|--------------------------------------------------------------------------|
B|--------------------------------------------------------------------------|
G|-------------7------------------------------------------------------------|
D|--10--7--10-----7-----------------------------10--7--10-------------------|
A|---------------------------------------------------------8--8-------------|
E|--------------------------------------------------------------------------|

That's how it's played on the record, but if you want to throw a few more
notes in, you can play it like

e|--------------------------------------------------------------------------|
B|--------------------------------------------------------------------------|
G|---------7-----------------------7----------------------------------------|
D|-10-7-10---7-------------10-7-10---7--------------------------------------|
A|--------------10--8-------------------10--8-------------------------------|
E|--------------------------------------------------------------------------|

e|--------------------------------------------------------------------------|
B|--------------------------------------------------------------------------|
G|---------7----------------------------------------------------------------|
D|-10-7-10---7-------------7------------------------------------------------|
A|--------------10--8--10-----10-8-8----------------------------------------|
E|--------------------------------------------------------------------------|



| /  slide up
| \  slide down
| h  hammer-on
| p  pull-off
| ~  vibrato
| +  harmonic
| x  Mute note
===============================================================================
Tap to rate this tab
 
# A B C D E F G H I J K L M N O P Q R S T U V W X Y Z