Song name
# A B C D E F G H I J K L M N O P Q R S T U V W X Y Z

Forgive Durden - When Its Too Late For Pf Flyers tab

-------------------------------------------------------------------------------
			     When It's Too Late For PF Flyers - Forgive Durden
-------------------------------------------------------------------------------
Tabbed by: Sean Law
Email:

Tuning: Standard

e|--------------------------------------------------------------------------|
B|--------------------------------------------------------------------------|
G|--------------------------------------------------------------------------|
D|---99-xxxxxx-99-xx-99-99--99-xxxxxx--99-xx-99-99--------------------------|
A|---66-xxxxxx-66-xx-66-66--77-xxxxxx--77-xx-77-77--------------------------|
E|--------------------------------------------------------------------------|


e|--------------------------------------------------------------------------|
B|--------------------------------------------------------------------------|
G|--------------------------------------------------------------------------|
D|---9-9--xxxxxx-9-9--xx-9-9--9-9-----77-xxxxxx-77-xx-77-77-----------------|
A|---1111-xxxxxx-1111-xx-1111-1111----99-xxxxxx-99-xx-99-99-----------------|
E|--------------------------------------------------------------------------|




| /  slide up
| \  slide down
| h  hammer-on
| p  pull-off
| ~  vibrato
| +  harmonic
| x  Mute note
===============================================================================
Tap to rate this tab
 
# A B C D E F G H I J K L M N O P Q R S T U V W X Y Z