Song name
# A B C D E F G H I J K L M N O P Q R S T U V W X Y Z

Forgotten Rebels - Hockey Nite In Canada tab

Intro:
e|------------------------------------|
B|------------------------------------|
G|-----------9-9-----------7-7--------|
D|--7-7-7-7--9-9--4-4-4-4--7-7--------| (x3)
A|--7-7-7-7--7-7--4-4-4-4--5-5--------|
E|--5-5-5-5-------2-2-2-2-------------|

e|-----------------------------------|
B|-----------------------------------|
G|-----------------------------------|(on the third time)
D|--7-7-7-7-7-7-7-7-7-7-7-7-7-7-7-7--|
A|--7-7-7-7-7-7-7-7-7-7-7-7-7-7-7-7--|
E|--5-5-5-5-5-5-5-5-5-5-5-5-5-5-5-5--|

Verse: (Johnny had the big stick on his team...)
e|--------------------------------------------------------------|
B|--------------------------------------------------------------|
G|-------------------7-7-7-7-7-7-7-7-------------------9--7-----|(x2)
D|--7-7-7-7-7-7-7-7--7-7-7-7-7-7-7-7--7-7-7-7-7-7-7-7--9--7--7--|
A|--7-7-7-7-7-7-7-7--5-5-5-5-5-5-5-5--7-7-7-7-7-7-7-7--7--5--7--|
E|--5-5-5-5-5-5-5-5-------------------5-5-5-5-5-5-5-5--------5--|

Pre-Chorus: (He likes you first in line...)
e|---------------------------------|
B|---------------------------------|
G|--7-7----------------------------|
D|--7-7--7-7-7-7--9-9-9-9-9-9-9-9--|(x3) The third time, hold the B
A|--5-5--7-7-7-7--9-9-9-9-9-9-9-9--| for another 8 notes.
E|-------5-5-5-5--7-7-7-7-7-7-7-7--|

Chorus: (Dirty daddy wants to feel alright...)
e|------------------------------------|
B|------------------------------------|
G|-----------9-9-----------7-7--------|
D|--7-7-7-7--9-9--4-4-4-4--7-7--------| (x3)
A|--7-7-7-7--7-7--4-4-4-4--5-5--------|
E|--5-5-5-5-------2-2-2-2-------------|

e|-----------------------------------|
B|-----------------------------------|
G|-----------------------------------|(on the third time) Looks an aweful
D|--7-7-7-7-7-7-7-7-7-7-7-7-7-7-7-7--| lot like the intro, doesn't it?
A|--7-7-7-7-7-7-7-7-7-7-7-7-7-7-7-7--|
E|--5-5-5-5-5-5-5-5-5-5-5-5-5-5-5-5--|

Bridge: (Sex, lies, hockey tape...)
e|--------------|
B|--------------|
G|--------7--9--| (x4)
D|--7--4--7--9--|
A|--7--4--5--7--|
E|--5--2--------|

End with:
e|------------------------------|
B|------------------------------|
G|---------------------9--7-----|
D|--7-7-7-7-7-7-7-7----9--7--7--|
A|--7-7-7-7-7-7-7-7----7--5--7--|
E|--5-5-5-5-5-5-5-5----------5--|

Intro
Verse
Pre-Chorus
Chorus
Verse
Pre-Chorus
Chorus
Bridge
Chorus (x2)

Feedback is welcome...but I'll be some kind of pissed if someone tells me this is 
wrong...
Tap to rate this tab
 
# A B C D E F G H I J K L M N O P Q R S T U V W X Y Z