Song name
# A B C D E F G H I J K L M N O P Q R S T U V W X Y Z

Forgotten Rebels - I Think Of Her tab

Intro x2 (Palmute)
E-------------------------------------------------------------------|
B-------------------------------------------------------------------|
G-------------------------------------------------------------------|
D-2-2-2-2-2-2-2-2-2-2-2-2-2-2-2-2--7-7-7-7-7-7-7-7--9-9-9-9-9-9-9-9-|
A-2-2-2-2-2-2-2-2-2-2-2-2-2-2-2-2--7-7-7-7-7-7-7-7--9-9-9-9-9-9-9-9-|
E-0-0-0-0-0-0-0-0-0-0-0-0-0-0-0-0--5-5-5-5-5-5-5-5--7-7-7-7-7-7-7-7-|

Verse x4 (Palmute)
E-------------------------------------------------------------------|
B-------------------------------------------------------------------|
G-------------------------------------------------------------------|
D-2-2-2-2-2-2-2-2-2-2-2-2-2-2-2-2--7-7-7-7-7-7-7-7--9-9-9-9-9-9-9-9-|
A-2-2-2-2-2-2-2-2-2-2-2-2-2-2-2-2--7-7-7-7-7-7-7-7--9-9-9-9-9-9-9-9-|
E-0-0-0-0-0-0-0-0-0-0-0-0-0-0-0-0--5-5-5-5-5-5-5-5--7-7-7-7-7-7-7-7-|

Chorus x4
E-----------------------------------|
B-----------------------------------|
G-7-7-7-7--9-9-9-9------------------|
D-7-7-7-7--9-9-9-9--7-7-7-7-7-7-7-7-|
A-5-5-5-5--7-7-7-7--7-7-7-7-7-7-7-7-|
E-------------------5-5-5-5-5-5-5-5-|

After Chorus x1 (Palmute) 
E---------------------------------|
B---------------------------------|
G---------------------------------|
D-2-2-5-5-2-2-5-5-2-2-5-5-2-2-5-5-|
A-2-2-5-5-2-2-5-5-2-2-5-5-2-2-5-5-|
E-0-0-3-3-0-0-3-3-0-0-3-3-0-0-3-3-|

Verse x4
E-------------------------------------------------------------------|
B-------------------------------------------------------------------|
G-------------------------------------------------------------------|
D-2-2-2-2-2-2-2-2-2-2-2-2-2-2-2-2--7-7-7-7-7-7-7-7--9-9-9-9-9-9-9-9-|
A-2-2-2-2-2-2-2-2-2-2-2-2-2-2-2-2--7-7-7-7-7-7-7-7--9-9-9-9-9-9-9-9-|
E-0-0-0-0-0-0-0-0-0-0-0-0-0-0-0-0--5-5-5-5-5-5-5-5--7-7-7-7-7-7-7-7-|

Chorus x4
E-----------------------------------|
B-----------------------------------|
G-7-7-7-7--9-9-9-9------------------|
D-7-7-7-7--9-9-9-9--7-7-7-7-7-7-7-7-|
A-5-5-5-5--7-7-7-7--7-7-7-7-7-7-7-7-|
E-------------------5-5-5-5-5-5-5-5-|

Intro (Behind Solo) x2
E-------------------------------------------------------------------|
B-------------------------------------------------------------------|
G-------------------------------------------------------------------|
D-2-2-2-2-2-2-2-2-2-2-2-2-2-2-2-2--7-7-7-7-7-7-7-7--9-9-9-9-9-9-9-9-|
A-2-2-2-2-2-2-2-2-2-2-2-2-2-2-2-2--7-7-7-7-7-7-7-7--9-9-9-9-9-9-9-9-|
E-0-0-0-0-0-0-0-0-0-0-0-0-0-0-0-0--5-5-5-5-5-5-5-5--7-7-7-7-7-7-7-7-|

Chorus (Repeat till end)
E-----------------------------------|
B-----------------------------------|
G-7-7-7-7--9-9-9-9------------------|
D-7-7-7-7--9-9-9-9--7-7-7-7-7-7-7-7-|
A-5-5-5-5--7-7-7-7--7-7-7-7-7-7-7-7-|
E-------------------5-5-5-5-5-5-5-5-|
Tap to rate this tab
 
# A B C D E F G H I J K L M N O P Q R S T U V W X Y Z