Song name
# A B C D E F G H I J K L M N O P Q R S T U V W X Y Z

Forgotten Rebels - In Love With The System tab

Help us improve GuitareTab! Take a short survey!
Intro                             x3
E----------------------------------|------------------|
B----------------------------------|------------------|
G---------5--5-5--7--7-7--5-5--4-4-|--------5--5-5----|
D-5--5-5--5--5-5--7--7-7--5-5--4-4-|-5--5-5-5--5-5-5-5|
A-5--5-5--3--3-3--5--5-5--3-3--2-2-|-5--5-5-3--3-3-5-5|
E-3--3-3---------------------------|-3--3-3--------3-3|

Verse
E-----------------------------------------------------------------------|
B-----------------------------------------------------------------------|
G---------5--5-5----------7--7-7----------5--5-5----------7-7--5-5--4-2-|
D-5--5-5--5--5-5--5--5-5--7--7-7--5--5-5--5--5-5--5--5-5--7-7--5-5--4-2-|
A-5--5-5--3--3-3--5--5-5--5--5-5--5--5-5--3--3-3--5--5-5--5-5--3-3--2-0-|
E-3--3-3----------3--3-3----------3--3-3----------3--3-3----------------|

Chorus                           x3
E----------------------------------|------------------|
B----------------------------------|------------------|
G---------5--5-5--7--7-7--5-5--4-4-|--------5--5-5----|
D-5--5-5--5--5-5--7--7-7--5-5--4-4-|-5--5-5-5--5-5-5-5|
A-5--5-5--3--3-3--5--5-5--3-3--2-2-|-5--5-5-3--3-3-5-5|
E-3--3-3---------------------------|-3--3-3--------3-3|

Verse
E-----------------------------------------------------------------------|
B-----------------------------------------------------------------------|
G---------5--5-5----------7--7-7----------5--5-5----------7-7--5-5--4-2-|
D-5--5-5--5--5-5--5--5-5--7--7-7--5--5-5--5--5-5--5--5-5--7-7--5-5--4-2-|
A-5--5-5--3--3-3--5--5-5--5--5-5--5--5-5--3--3-3--5--5-5--5-5--3-3--2-0-|
E-3--3-3----------3--3-3----------3--3-3----------3--3-3----------------|

Chorus                           x3
E----------------------------------|------------------|
B----------------------------------|------------------|
G---------5--5-5--7--7-7--5-5--4-4-|--------5--5-5----|
D-5--5-5--5--5-5--7--7-7--5-5--4-4-|-5--5-5-5--5-5-5-5|
A-5--5-5--3--3-3--5--5-5--3-3--2-2-|-5--5-5-3--3-3-5-5|
E-3--3-3---------------------------|-3--3-3--------3-3|

Verse
E-----------------------------------------------------------------------|
B-----------------------------------------------------------------------|
G---------5--5-5----------7--7-7----------5--5-5----------7-7--5-5--4-2-|
D-5--5-5--5--5-5--5--5-5--7--7-7--5--5-5--5--5-5--5--5-5--7-7--5-5--4-2-|
A-5--5-5--3--3-3--5--5-5--5--5-5--5--5-5--3--3-3--5--5-5--5-5--3-3--2-0-|
E-3--3-3----------3--3-3----------3--3-3----------3--3-3----------------|

Chorus                           x3
E----------------------------------|------------------|
B----------------------------------|------------------|
G---------5--5-5--7--7-7--5-5--4-4-|--------5--5-5----|
D-5--5-5--5--5-5--7--7-7--5-5--4-4-|-5--5-5-5--5-5-5-5|
A-5--5-5--3--3-3--5--5-5--3-3--2-2-|-5--5-5-3--3-3-5-5|
E-3--3-3---------------------------|-3--3-3--------3-3|

Not sure about the solo yet, if you know it comment it and i'll add it up

Chorus                           x3
E----------------------------------|------------------|
B----------------------------------|------------------|
G---------5--5-5--7--7-7--5-5--4-4-|--------5--5-5----|
D-5--5-5--5--5-5--7--7-7--5-5--4-4-|-5--5-5-5--5-5-5-5|
A-5--5-5--3--3-3--5--5-5--3-3--2-2-|-5--5-5-3--3-3-5-5|
E-3--3-3---------------------------|-3--3-3--------3-3|

Outro (repeat and fade out)
E------------------|
B------------------|
G--------5--5-5----|
D-5--5-5-5--5-5-5-5|
A-5--5-5-3--3-3-5-5|
E-3--3-3--------3-3|

___________________________________________________________________________
In love With The System Version
___________________________________________________________________________
Related for In Love With The System tab