Guitaretab - guitar tabs
Song name
# A B C D E F G H I J K L M N O P Q R S T U V W X Y Z

Forgotten Rebels - I Left My Heart In Iran tab

Intro x4
E-------------------------------------------------|
B-------------------------------------------------|
G-------------7-7-7-7/6-7-9-9-9-9-9-9-9-9-9-9-9-9-|
D-7-7-7-7/6-7-7-7-7-7/6-7-9-9-9-9-9-9-9-9-9-9-9-9-|
A-7-7-7-7/6-7-5-5-5-5/4-5-7-7-7-7-7-7-7-7-7-7-7-7-|
E-5-5-5-5/4-5-------------------------------------|

Verse x2
E--------------------------------------------------|
B--------------------------------------------------|
G-------------7-7-7-7-7-7--------------9-9-9-9-9-9-|
D-7-7-7-7-7-7-7-7-7-7-7-7-7-7-7-7-7-7--9-9-9-9-9-9-|
A-7-7-7-7-7-7-5-5-5-5-5-5-7-7-7-7-7-7--7-7-7-7-7-7-|
E-5-5-5-5-5-5-------------5-5-5-5-5-5--------------|

Chorus x4
E-------------------------------------------------|
B-------------------------------------------------|
G-------------7-7-7-7-7-7-9-9-9-9-9-9-9-9-9-9-9-9-|
D-7-7-7-7-7-7-7-7-7-7-7-7-9-9-9-9-9-9-9-9-9-9-9-9-|
A-7-7-7-7-7-7-5-5-5-5-5-5-7-7-7-7-7-7-7-7-7-7-7-7-|
E-5-5-5-5-5-5-------------------------------------|
[ Tab from: http://www.guitaretab.com/f/forgotten-rebels/111060.html ]
Verse x2
E-------------------------------------------------|
B-------------------------------------------------|
G-------------7-7-7-7-7-7-------------9-9-9-9-9-9-|
D-7-7-7-7-7-7-7-7-7-7-7-7-7-7-7-7-7-7-9-9-9-9-9-9-|
A-7-7-7-7-7-7-5-5-5-5-5-5-7-7-7-7-7-7-7-7-7-7-7-7-|
E-5-5-5-5-5-5-------------5-5-5-5-5-5-------------|

Chorus x4
E-------------------------------------------------|
B-------------------------------------------------|
G-------------7-7-7-7-7-7-9-9-9-9-9-9-9-9-9-9-9-9-|
D-7-7-7-7-7-7-7-7-7-7-7-7-9-9-9-9-9-9-9-9-9-9-9-9-|
A-7-7-7-7-7-7-5-5-5-5-5-5-7-7-7-7-7-7-7-7-7-7-7-7-|
E-5-5-5-5-5-5-------------------------------------|

**Drop the Bombs boys**

Chorus x3 (Fade Out)
E-------------------------------------------------|
B-------------------------------------------------|
G-------------7-7-7-7-7-7-9-9-9-9-9-9-9-9-9-9-9-9-|
D-7-7-7-7-7-7-7-7-7-7-7-7-9-9-9-9-9-9-9-9-9-9-9-9-|
A-7-7-7-7-7-7-5-5-5-5-5-5-7-7-7-7-7-7-7-7-7-7-7-7-|
E-5-5-5-5-5-5-------------------------------------|
_________________________________________________________________
In Love With The System Version
_________________________________________________________________
Related for I Left My Heart In Iran tab
×
I Left My Heart In Iran