Song name
# A B C D E F G H I J K L M N O P Q R S T U V W X Y Z

Forgotten Rebels - The Punks Are Alright tab

Verse
E--------------------------------------------------------------------|
B--------------------------------------------------------------------|
G-7----------------7-7-7-7----------7-7-7-7----------7-7-7-7---------|
D-7-------5-5-7-7--7-7-7-7-5-5-7-7--7-7-7-7-5-5-7-7--7-7-7-7-5-5-7-7-|
A-5-------5-5-7-7--5-5-5-5-5-5-7-7--5-5-5-5-5-5-7-7--5-5-5-5-5-5-7-7-|
E---------3-3-5-5----------3-3-5-5----------3-3-5-5----------3-3-5-5-|

Chorus                                                            x2
E-------------------------------------------------|-----------------|
B-------------------------------------------------|-----------------|
G-9-9-9-9---------7-7-7-7---------9-9-9-9---------|-7-7-7-7---------|
D-9-9-9-9-7-7-7-7-7-7-7-7-7-7-7-7-9-9-9-9-7-7-7-7-|-7-7-7-7-7-7-7-7-|
A-7-7-7-7-7-7-7-7-5-5-5-5-7-7-7-7-7-7-7-7-7-7-7-7-|-5-5-5-5-7-7-7-7-|
E---------5-5-5-5---------5-5-5-5---------5-5-5-5-|---------5-5-5-5-|

Verse
E--------------------------------------------------------------------|
B--------------------------------------------------------------------|
G-7-7-7-7----------7-7-7-7----------7-7-7-7----------7-7-7-7---------|
D-7-7-7-7-5-5-7-7--7-7-7-7-5-5-7-7--7-7-7-7-5-5-7-7--7-7-7-7-5-5-7-7-|
A-5-5-5-5-5-5-7-7--5-5-5-5-5-5-7-7--5-5-5-5-5-5-7-7--5-5-5-5-5-5-7-7-|
E---------3-3-5-5----------3-3-5-5----------3-3-5-5----------3-3-5-5-|

Chorus                                                            x2
E-------------------------------------------------|-----------------|
B-------------------------------------------------|-----------------|
G-9-9-9-9---------7-7-7-7---------9-9-9-9---------|-7-7-7-7---------|
D-9-9-9-9-7-7-7-7-7-7-7-7-7-7-7-7-9-9-9-9-7-7-7-7-|-7-7-7-7-7-7-7-7-|
A-7-7-7-7-7-7-7-7-5-5-5-5-7-7-7-7-7-7-7-7-7-7-7-7-|-5-5-5-5-7-7-7-7-|
E---------5-5-5-5---------5-5-5-5---------5-5-5-5-|---------5-5-5-5-|

Bridge ("You know I can't help feeling pissed off")
E----------------------------------------------------|
B----------------------------------------------------|
G----------------------------------------------------|
D-7-7-7-7-7-7-7-7-5-5--5-5--7-7-7-7-7-7-7-7-5-5--5-5-|
A-7-7-7-7-7-7-7-7-5-5--5-5--7-7-7-7-7-7-7-7-5-5--5-5-|
E-5-5-5-5-5-5-5-5-3-3--3-3--5-5-5-5-5-5-5-5-3-3--3-3-|

Verse
E--------------------------------------------------------------------|
B--------------------------------------------------------------------|
G-7-7-7-7----------7-7-7-7----------7-7-7-7----------7-7-7-7---------|
D-7-7-7-7-5-5-7-7--7-7-7-7-5-5-7-7--7-7-7-7-5-5-7-7--7-7-7-7-5-5-7-7-|
A-5-5-5-5-5-5-7-7--5-5-5-5-5-5-7-7--5-5-5-5-5-5-7-7--5-5-5-5-5-5-7-7-|
E---------3-3-5-5----------3-3-5-5----------3-3-5-5----------3-3-5-5-|

Chorus                                                            x3 END
E-------------------------------------------------|-----------------|---|
B-------------------------------------------------|-----------------|---|
G-9-9-9-9---------7-7-7-7---------9-9-9-9---------|-7-7-7-7---------|-7-|
D-9-9-9-9-7-7-7-7-7-7-7-7-7-7-7-7-9-9-9-9-7-7-7-7-|-7-7-7-7-7-7-7-7-|-7-|
A-7-7-7-7-7-7-7-7-5-5-5-5-7-7-7-7-7-7-7-7-7-7-7-7-|-5-5-5-5-7-7-7-7-|-5-|
E---------5-5-5-5---------5-5-5-5---------5-5-5-5-|---------5-5-5-5-|---|

Tap to rate this tab
 
# A B C D E F G H I J K L M N O P Q R S T U V W X Y Z