Forgotten Rebels - Hello Hello tab

Verse:

e---------------------------------|
b---------------------------------|
g-------------------------8-8-----|
d-8-8-8-8-8-8-8-8-8-8-8-8-8-8-6-6-|
a-8-8-8-8-8-8-8-8-8-8-8-8-6-6-6-6-|  repeat (x4)
e-6-6-6-6-6-6-6-6-6-6-6-6-----4-4-|

then:

e-----------------|
b-----------------|
g---------8-8-8-8-|
d-8-8-8-8-8-8-8-8-|
a-8-8-8-8-6-6-6-6-|
e-6-6-6-6---------|

chorus:

e-------------------------|
b-------------------------|
g-----------------7-7-7-7-|
d-9-9-9-9-6-6-6-6-7-7-7-7-|
a-9-9-9-9-6-6-6-6-5-5-5-5-|
e-7-7-7-7-4-4-4-4---------|

bridge:

e---------------------------------|
b---------------------------------|
g-----------------8-8-8-8-8-8-8-8-|
a-6-6-6-6-6-6-6-6-8-8-8-8-8-8-8-8-|
d-6-6-6-6-6-6-6-6-6-6-6-6-6-6-6-6-|
e-4-4-4-4-4-4-4-4-----------------|

e---------------------------------|
b---------------------------------|
g-----------------8-8-8-8-8-8-8-8-|
a-6-6-6-6-6-6-6-6-8-8-8-8-8-8-8-8-|
d-6-6-6-6-6-6-6-6-6-6-6-6-6-6-6-6-|
e-4-4-4-4-4-4-4-4-----------------|

e-----------------|
b-----------------|
g-8-8-8-8-8-8-8-8-|
a-8-8-8-8-8-8-8-8-|
d-6-6-6-6-6-6-6-6-|
e-----------------|

those are all the parts - the order is as follows

verse
chorus
verse
chorus
bridge
verse
chorus
chorus
Tap to rate this tab
 
# A B C D E F G H I J K L M N O P Q R S T U V W X Y Z