Song name
# A B C D E F G H I J K L M N O P Q R S T U V W X Y Z

Format - Dead End tab

This is for the solo during the chorus. It's not too hard once you figure it out. 
I'm almost sure the last part may not be correct, but the first two parts definitely are

Light Distortion
Standard Tuning


|------8--10---8------8h10--10--10----8-----8--|
|----8-----------8-----------------------8-----|
|------------------9---------------------------|
|----------------------------------------------|
|----------------------------------------------|
|----------------------------------------------|


|------10-12-10---8---10h12---12---12--10-8-10-|
|--10---------------10-------------------------|
|----------------------------------------------|
|----------------------------------------------|
|----------------------------------------------|
|----------------------------------------------|

|-----------1------------------3---------------|
|---------1------------------3-----------------|
|-------2------------------0-------------------|
|----3-------------------0---------------------|
|--3-------------------2-----------------------|
|----------------------------------------------|
Tap to rate this tab
 
# A B C D E F G H I J K L M N O P Q R S T U V W X Y Z