Guitaretab - guitar tabs
Song name
# A B C D E F G H I J K L M N O P Q R S T U V W X Y Z

Format - The Compromise Acoustic tab

Title: The Compromise (Acoustic)
Artist: The Format
Tabbed By: Trevor Paxton
Tuning: 1/2 step down (EbAbDbGbBbEb)

Intro
eb|---4-----0-----0----|
Bb|---5-----0-----0----|
Gb|---6-----2-----1----| x3
Db|---6-----2-----2----|
Ab|---4-----0-----2----|
Eb|---4-----x-----0----|

Verse 1 (You, you think itís cool...)
eb|---0-----2-----0-----0----|
Bb|---0-----2-----0-----0----|
Gb|---1-----3-----2-----1----| x2
Db|---2-----4-----2-----2----|
Ab|---2-----4-----0-----2----|
Eb|---0-----2-----x-----0----|

Prechorus 1 (Away from this scene...)
eb|---2-----2----|
Bb|---2-----2----|
Gb|---3-----2----| x1
Db|---4-----4----|
Ab|---4-----4----|
Eb|---2-----2----|

Chorus (So meet me in the middle...)
eb|---4-----0-----0----|
Bb|---5-----0-----0----|
Gb|---6-----2-----1----| x2
Db|---6-----2-----2----|
Ab|---4-----0-----2----|
Eb|---4-----x-----0----|

Chorus (And weíll agree to call it...)
eb|---4-----0-----0-----0-----0----|
Bb|---5-----0-----0-----0-----0----|
Gb|---6-----2-----1-----2-----1----| x1
Db|---6-----2-----2-----2-----2----|
Ab|---4-----0-----2-----0-----2----|
Eb|---4-----x-----0-----x-----0----|

Verse 2 (Step one, grab a partner...)
eb|---0-----2-----0-----0----|
Bb|---0-----2-----0-----0----|
Gb|---1-----3-----2-----1----| x2
Db|---2-----4-----2-----2----|
Ab|---2-----4-----0-----2----|
Eb|---0-----2-----x-----0----|

Prechorus 2 (Donít call it a trend...)
eb|---2-----2----|
Bb|---2-----2----|
Gb|---3-----2----| x1
Db|---4-----4----|
Ab|---4-----4----|
Eb|---2-----2----|



Chorus (So meet me in the middle...)
eb|---4-----0-----0----|
Bb|---5-----0-----0----|
Gb|---6-----2-----1----| x2
Db|---6-----2-----2----|
Ab|---4-----0-----2----|
Eb|---4-----x-----0----|

Chorus (And weíll agree to call it...)
eb|---4-----0-----0-----0-----0----|
Bb|---5-----0-----0-----0-----0----|
Gb|---6-----2-----1-----2-----1----| x1
Db|---6-----2-----2-----2-----2----|
Ab|---4-----0-----2-----0-----2----|
Eb|---4-----x-----0-----x-----0----|

Chorus (Thereís no sense in complaining...)
eb|---4-----0-----0----|
Bb|---5-----0-----0----|
Gb|---6-----2-----1----| x2
Db|---6-----2-----2----|
Ab|---4-----0-----2----|
Eb|---4-----x-----0----|
[ Tab from: http://www.guitaretab.com/f/format/72502.html ]
Chorus (Well, take me by the hand...)
eb|---4-----0-----0-----0-----0----|
Bb|---5-----0-----0-----0-----0----|
Gb|---6-----2-----1-----2-----1----| x1
Db|---6-----2-----2-----2-----2----|
Ab|---4-----0-----2-----0-----2----|
Eb|---4-----x-----0-----x-----0----|

Bridge (I canít feel your feet touching mine...)
eb|---2-----0-----0----|
Bb|---3-----0-----0----|
Gb|---4-----2-----1----| x2
Db|---4-----2-----2----|
Ab|---2-----0-----2----|
Eb|---2-----x-----0----|

Interlude (Oo, oo, oo...)
eb|---4-----0-----0----|
Bb|---5-----0-----0----|
Gb|---6-----2-----1----| x2
Db|---6-----2-----2----|
Ab|---4-----0-----2----|
Eb|---4-----x-----0----|

Interlude (Oo, oo, oo...)
eb|---4-----0-----0-----0-----0----|
Bb|---5-----0-----0-----0-----0----|
Gb|---6-----2-----1-----2-----1----| x1
Db|---6-----2-----2-----2-----2----|
Ab|---4-----0-----2-----0-----2----|
Eb|---4-----x-----0-----x-----0----|

Interlude (Oo, oo, oo...)
eb|---4-----0-----0----|
Bb|---5-----0-----0----|
Gb|---6-----2-----1----| x2
Db|---6-----2-----2----|
Ab|---4-----0-----2----|
Eb|---4-----x-----0----|

Interlude (Oo, oo, oo...)
eb|---4-----0-----0-----0-----0----|
Bb|---5-----0-----0-----0-----0----|
Gb|---6-----2-----1-----2-----1----| x1
Db|---6-----2-----2-----2-----2----|
Ab|---4-----0-----2-----0-----2----|
Eb|---4-----x-----0-----x-----0----|

Bridge (I canít feel your feet touching mine...)
eb|---2-----0-----0----|
Bb|---3-----0-----0----|
Gb|---4-----2-----1----| x2
Db|---4-----2-----2----|
Ab|---2-----0-----2----|
Eb|---2-----x-----0----|

Chorus (So meet me in the middle...)
eb|---4-----0-----0----|
Bb|---5-----0-----0----|
Gb|---6-----2-----1----| x2
Db|---6-----2-----2----|
Ab|---4-----0-----2----|
Eb|---4-----x-----0----|

Chorus (And weíll agree to call it...)
eb|---4-----0-----0-----0-----0----|
Bb|---5-----0-----0-----0-----0----|
Gb|---6-----2-----1-----2-----1----| x1
Db|---6-----2-----2-----2-----2----|
Ab|---4-----0-----2-----0-----2----|
Eb|---4-----x-----0-----x-----0----|

Chorus (Thereís no sense in complaining...)
eb|---4-----0-----0----|
Bb|---5-----0-----0----|
Gb|---6-----2-----1----| x2
Db|---6-----2-----2----|
Ab|---4-----0-----2----|
Eb|---4-----x-----0----|

Chorus (Well, take me by the hand...)
eb|---4-----0-----0-----0-----0-----0-----0-----0-----0-----0--------0~----|
Bb|---5-----0-----0-----0-----0-----0-----0-----0-----0-----0--------0~----|
Gb|---6-----2-----1-----2-----1-----2-----1-----2-----1-----2--------1~----| x1
Db|---6-----2-----2-----2-----2-----2-----2-----2-----2-----2-end on-2~----|
Ab|---4-----0-----2-----0-----2-----0-----2-----0-----2-----0--------2~----|
Eb|---4-----x-----0-----x-----0-----x-----0-----x-----0-----x--------0~----|
Related for The Compromise Acoustic tab