Guitaretab - guitar tabs
Song name
# A B C D E F G H I J K L M N O P Q R S T U V W X Y Z

Format - Inches And Failing tab

Song: Inches and Failing
Artist: The Format
Tabbed By: Trevor Paxton
Comments: This song is simply too good to not have a tab.  Itís a fairly simple song,
 All you have to do is listen for the strumming on the album and play along with this tab
you will be set.

Tuning: Standard (EADGBE)

Intro (I love love...)
e|---0---0---2---0---2---0---0~---|
B|---2---0---3---2---3---2---0~---|
G|---2---1---2---2---2---2---1~---| x1
D|---2---2---0---2---0---2---2~---|
A|---0---2---0---0---0---0---2~---|
E|---x---0---x---x---x---x---0~---|

Verse 1 (Take these tattered boxes...)
e|---0---0---0---|
B|---2---0---2---|
G|---2---1---2---| x1
D|---2---2---2---|
A|---0---2---0---|
E|---x---0---x---|

Bridge 1 (Well, well, well...)
e|-------------|
B|-------------|
G|-------------| x1
D|-------------|
A|---0--2--4---|
E|-------------|

Donít play during ďIf fingertips are relationships...Ē  Itís just piano and other instruments.

Bridge 1 (If fingers are mistakes...)
e|---2~---2~---0---0---|
B|---3~---3~---2---0---|
G|---4~---2~---2---1---| x1
D|---4~---0~---2---2---|
A|---2~---0~---0---2---|
E|---x----x~---x---0---|

Chorus 1 (I love love...)
e|---0---0---2---0---2---0---0---|
B|---2---0---3---2---3---2---0---|
G|---2---1---2---2---2---2---1---| x1
D|---2---2---0---2---0---2---2---|
A|---0---2---0---0---0---0---2---|
E|---x---0---x---x---x---x---0---|

Chorus 1 (These pills are fine to pass the time...)
e|---0---0---2---0---|
B|---2---0---3---2---|
G|---2---1---2---2---| x1
D|---2---2---0---2---|
A|---0---2---0---0---|
E|---x---0---x---x---|
[ Tab from: http://www.guitaretab.com/f/format/73360.html ]
Chorus 1 (Weíll take our chances...)
e|---0---0---|
B|---2---0---|
G|---2---1---| x3
D|---2---2---|
A|---0---2---|
E|---x---0---|

Chorus 1 (I love being in love...)
e|---2~---1~---|
B|---3~---3~---|
G|---2~---2~---| x1
D|---0~---0~---|
A|---0~---0~---|
E|---x----x----|

Interlude 1 (Instrumental)
e|---0---0---0---|
B|---2---0---2---|
G|---2---1---2---| x1
D|---2---2---2---|
A|---0---2---0---|
E|---x---0---x---|

Verse 2 (Donítí pick up that line...)
e|---0---0---|
B|---2---0---|
G|---2---1---| x1
D|---2---2---|
A|---0---2---|
E|---x---0---|

Bridge 2 (Well, well, well...)
e|-------------|
B|-------------|
G|-------------| x1
D|-------------|
A|---0--2--4---|
E|-------------|

Chorus 3 (I love love...)
e|---0---0---2---0---2---0---0---|
B|---2---0---3---2---3---2---0---|
G|---2---1---2---2---2---2---1---| x1
D|---2---2---0---2---0---2---2---|
A|---0---2---0---0---0---0---2---|
E|---x---0---x---x---x---x---0---|

Chorus 3 (I love love...)
e|---2---2---7---7---7---7---4---|
B|---4---2---9---7---9---7---6---|
G|---4---3---9---8---9---8---6---| x1
D|---4---4---9---9---9---9---6---|
A|---2---4---7---9---7---9---4---|
E|---x---2---x---7---x---7---x---|

Chorus 3 (These pills are fine to pass the time...)
e|---0---0---2---0---|
B|---2---0---3---2---|
G|---2---1---2---2---| x1
D|---2---2---0---2---|
A|---0---2---0---0---|
E|---x---0---x---x---|

Chorus 2 (Weíll take advantage...)
e|---0---0---|
B|---2---0---|
G|---2---1---| x3
D|---2---2---|
A|---0---2---|
E|---x---0---|

Chorus 2 (I love how...)
e|---2~---1~---|
B|---3~---3~---|
G|---2~---2~---| x3
D|---0~---0~---|
A|---0~---0~---|
E|---x----x----|

End on...
e|---0---|
B|---2---|
G|---2---| x1
D|---2---|
A|---0---|
E|---x---|
Related for Inches And Failing tab