Song name
# A B C D E F G H I J K L M N O P Q R S T U V W X Y Z

Format - Matches tab

--------------------------1-1--1-1--1-1--1---|
---1-1--1-1--1-1--1-------1-1--1-1--1-1--1---|
---0-0--0-0--0-0--0--------------------------|
-------------------------3----2----0----2----|
--3----2----0----2---------------------------|
---------------------------------------------|

----3~------1~--------------------------|
----3~------1~--------------------------|
------------2~--------------------------|
------------3~--------------------------|
----2~----------------------------------|
----3~----------------------------------|
Tap to rate this tab
 
# A B C D E F G H I J K L M N O P Q R S T U V W X Y Z