Song name
# A B C D E F G H I J K L M N O P Q R S T U V W X Y Z

Format - Your New Name tab

Capo on 3rd fret. I thought it was 2nd fret but the video on youtube its on the third fret.

Intro (2x)

|----------------|----------------|
|----------------|----------------|
|---------0---0-0|---------0---0-0|
|---------0------|---------0------|
|--0-0h2----0-0-0|--0-0h2----0-0-0|
|----------------|----------------|

|----------------|----------------|
|----------------|----------------|
|---------2---2-2|---------2---2-2|
|---------0h2-0-0|---------0h2-0-0|
|--0-0h2---------|--0-0h2---------|
|----------------|----------------|

Verse

|-----------------|----------------------|
|-----------------|----------------------|
|------------0---0|---0---0---0---0---0--|
|--------0---0---0|---0---0---0---0---0--|
|--0-0h2---2---2--|-4---4---2---2---0---0|
|-----------------|----------------------|

|-----------------|----------------------|
|-----------------|----------------------|
|------------0---0|---0---0---0---0---0--|
|--------0---0---0|---0---0---0---0---0--|
|--0-0h2---2---2--|-4---4---2---2---0---0|
|-----------------|----------------------|

|-----------------|-------------------------|
|-----------------|-------------------------|
|------------0---0|---0-0-0---0---0-----0---|
|--------0---0---0|---0-0-0---0---0-----0---|
|--0-0h2---2---4--|-5-5-4-2-0---0-10\-0---0-|
|-----------------|---------------10\-------|

|-----------------|------------------------------|
|-----------------|------------------------------|
|------------0---0|---0-0-0---0---0-----0---0---0|
|--------0---0---0|---0-0-0---0---0-----0---0---0|
|--0-0h2---2---4--|-5-5-4-2-0---0-10\-0---0---0--|
|-----------------|---------------10\------------|


Chorus
Repeat
|-------------------------------------------|
|----3-3-3---0--0--0------------------------|
|----2-2-2---0--0--0---------7-7-7-7-6------|
|----0-0-0---0--0--0---------5-5-5-5-5------|
|---0-------2--2--2-------------------------|
|---------------------------5---------------|

|-------------------------------------------------|
|-------------------------------------------------|
|-------7-6--------7-6----------------------------|
|--5-5--5-5repeat--5-5-9-7-7p5--------------------|
|----------------------5-5-5--0-2-----------------|
|---5--5------------------------------------------|

Outro
|--------------------------------------------------|
|--------1-----------1-----------1-----------------|
|------0-0-0-------0-0-0-------0-0-0-------0-----0-|
|----2-------2---2-------2---2-------2---2-----2---|
|--3-----------3-----------3-----------3-----0-----|
|--------------------------------------------------|

|--------0-----------3-----------0-----------------|
|------1-1-1-------1-1-1-------1-1-1-------1-------|
|----2-------2---2-------2---2-------2---2-----2-0-|
|--3-----------3-----------3-----------3-----0-----|
|--------------------------------------------------|
Tap to rate this tab
# A B C D E F G H I J K L M N O P Q R S T U V W X Y Z