Song name
# A B C D E F G H I J K L M N O P Q R S T U V W X Y Z

Format - Your Not A Whore tab

Help us improve GuitareTab! Take a short survey!
Verse
 You stole my, stole my heart......
--33333------------------------------------|
--33333------------------------------------|
--00000------------------------------------|
--00000------------------------------------|
--22222------------------------------------|
--33333------------------------------------|

  Me I stole your innocents.......
--------------------------------------------------|
--1111111-----------------------------------------|
--0000000-----------------------------------------|
--2222222-----------------------------------------|
--3333333-----------------------------------------|
--------------------------------------------------|

  Well age just aint so easy to replace....
---222222------------------------33333----------|
---333333------------------------33333----------|
---222222------------------------00000----------|
---------------------------------00000----------|
---------------------------------22222----------|
---------------------------------33333----------|

Chorus
Your not a whore...just....you are
-------------------2-2-2----3333--------------|
--1~---------------3-3-3----3333--------------|
--0~---------------2-2-2----0000--------------|
--2~------------------------0000--------------|
--3~------------------------2222--------------|
----------------------------3333--------------|


Bridge is around the same chords
Related for Your Not A Whore tab